  0
SECTION
  2
HEADER
  9
$ACADVER
  1
AC1015
  9
$ACADMAINTVER
 70
     6
  9
$DWGCODEPAGE
  3
ANSI_1254
  9
$INSBASE
 10
0.0
 20
0.0
 30
0.0
  9
$EXTMIN
 10
0.0
 20
0.0
 30
0.0
  9
$EXTMAX
 10
279.4
 20
215.9
 30
0.0
  9
$LIMMIN
 10
0.0
 20
0.0
  9
$LIMMAX
 10
279.4
 20
215.9
  9
$ORTHOMODE
 70
     0
  9
$REGENMODE
 70
     1
  9
$FILLMODE
 70
     1
  9
$QTEXTMODE
 70
     0
  9
$MIRRTEXT
 70
     1
  9
$LTSCALE
 40
1.0
  9
$ATTMODE
 70
     1
  9
$TEXTSIZE
 40
3.5
  9
$TRACEWID
 40
1.0
  9
$TEXTSTYLE
  7
Standard
  9
$CLAYER
  8
0
  9
$CELTYPE
  6
ByLayer
  9
$CECOLOR
 62
   256
  9
$CELTSCALE
 40
1.0
  9
$DISPSILH
 70
     0
  9
$DIMSCALE
 40
1.0
  9
$DIMASZ
 40
3.5
  9
$DIMEXO
 40
1.0
  9
$DIMDLI
 40
3.75
  9
$DIMRND
 40
0.0
  9
$DIMDLE
 40
0.0
  9
$DIMEXE
 40
1.0
  9
$DIMTP
 40
0.0
  9
$DIMTM
 40
0.0
  9
$DIMTXT
 40
3.5
  9
$DIMCEN
 40
2.5
  9
$DIMTSZ
 40
0.0
  9
$DIMTOL
 70
     0
  9
$DIMLIM
 70
     0
  9
$DIMTIH
 70
     1
  9
$DIMTOH
 70
     1
  9
$DIMSE1
 70
     0
  9
$DIMSE2
 70
     0
  9
$DIMTAD
 70
     1
  9
$DIMZIN
 70
     0
  9
$DIMBLK
  1

  9
$DIMASO
 70
     1
  9
$DIMSHO
 70
     1
  9
$DIMPOST
  1

  9
$DIMAPOST
  1

  9
$DIMALT
 70
     0
  9
$DIMALTD
 70
     3
  9
$DIMALTF
 40
0.0393700787
  9
$DIMLFAC
 40
1.0
  9
$DIMTOFL
 70
     1
  9
$DIMTVP
 40
0.0
  9
$DIMTIX
 70
     0
  9
$DIMSOXD
 70
     0
  9
$DIMSAH
 70
     0
  9
$DIMBLK1
  1

  9
$DIMBLK2
  1

  9
$DIMSTYLE
  2
ISO-25
  9
$DIMCLRD
 70
     0
  9
$DIMCLRE
 70
     0
  9
$DIMCLRT
 70
     0
  9
$DIMTFAC
 40
1.0
  9
$DIMGAP
 40
1.524
  9
$DIMJUST
 70
     0
  9
$DIMSD1
 70
     0
  9
$DIMSD2
 70
     0
  9
$DIMTOLJ
 70
     0
  9
$DIMTZIN
 70
     0
  9
$DIMALTZ
 70
     0
  9
$DIMALTTZ
 70
     0
  9
$DIMUPT
 70
     0
  9
$DIMDEC
 70
     2
  9
$DIMTDEC
 70
     2
  9
$DIMALTU
 70
     2
  9
$DIMALTTD
 70
     3
  9
$DIMTXSTY
  7
Standard
  9
$DIMAUNIT
 70
     0
  9
$DIMADEC
 70
     2
  9
$DIMALTRND
 40
0.0
  9
$DIMAZIN
 70
     0
  9
$DIMDSEP
 70
    44
  9
$DIMATFIT
 70
     3
  9
$DIMFRAC
 70
     0
  9
$DIMLDRBLK
  1

  9
$DIMLUNIT
 70
     2
  9
$DIMLWD
 70
    -2
  9
$DIMLWE
 70
    -2
  9
$DIMTMOVE
 70
     0
  9
$LUNITS
 70
     2
  9
$LUPREC
 70
     2
  9
$SKETCHINC
 40
1.0
  9
$FILLETRAD
 40
10.0
  9
$AUNITS
 70
     0
  9
$AUPREC
 70
     2
  9
$MENU
  1
.
  9
$ELEVATION
 40
0.0
  9
$PELEVATION
 40
0.0
  9
$THICKNESS
 40
0.0
  9
$LIMCHECK
 70
     0
  9
$CHAMFERA
 40
0.0
  9
$CHAMFERB
 40
0.0
  9
$CHAMFERC
 40
0.0
  9
$CHAMFERD
 40
0.0
  9
$SKPOLY
 70
     0
  9
$TDCREATE
 40
2459741.592398276
  9
$TDUCREATE
 40
2459741.467398276
  9
$TDUPDATE
 40
2459741.592399803
  9
$TDUUPDATE
 40
2459741.467399803
  9
$TDINDWG
 40
0.0000000116
  9
$TDUSRTIMER
 40
0.0000000116
  9
$USRTIMER
 70
     1
  9
$ANGBASE
 50
0.0
  9
$ANGDIR
 70
     0
  9
$PDMODE
 70
     0
  9
$PDSIZE
 40
-1.0
  9
$PLINEWID
 40
0.0
  9
$SPLFRAME
 70
     0
  9
$SPLINETYPE
 70
     6
  9
$SPLINESEGS
 70
     8
  9
$HANDSEED
  5
122
  9
$SURFTAB1
 70
     6
  9
$SURFTAB2
 70
     6
  9
$SURFTYPE
 70
     6
  9
$SURFU
 70
     6
  9
$SURFV
 70
     6
  9
$UCSBASE
  2

  9
$UCSNAME
  2

  9
$UCSORG
 10
0.0
 20
0.0
 30
0.0
  9
$UCSXDIR
 10
1.0
 20
0.0
 30
0.0
  9
$UCSYDIR
 10
0.0
 20
1.0
 30
0.0
  9
$UCSORTHOREF
  2

  9
$UCSORTHOVIEW
 70
     0
  9
$UCSORGTOP
 10
0.0
 20
0.0
 30
0.0
  9
$UCSORGBOTTOM
 10
0.0
 20
0.0
 30
0.0
  9
$UCSORGLEFT
 10
0.0
 20
0.0
 30
0.0
  9
$UCSORGRIGHT
 10
0.0
 20
0.0
 30
0.0
  9
$UCSORGFRONT
 10
0.0
 20
0.0
 30
0.0
  9
$UCSORGBACK
 10
0.0
 20
0.0
 30
0.0
  9
$PUCSBASE
  2

  9
$PUCSNAME
  2

  9
$PUCSORG
 10
0.0
 20
0.0
 30
0.0
  9
$PUCSXDIR
 10
1.0
 20
0.0
 30
0.0
  9
$PUCSYDIR
 10
0.0
 20
1.0
 30
0.0
  9
$PUCSORTHOREF
  2

  9
$PUCSORTHOVIEW
 70
     0
  9
$PUCSORGTOP
 10
0.0
 20
0.0
 30
0.0
  9
$PUCSORGBOTTOM
 10
0.0
 20
0.0
 30
0.0
  9
$PUCSORGLEFT
 10
0.0
 20
0.0
 30
0.0
  9
$PUCSORGRIGHT
 10
0.0
 20
0.0
 30
0.0
  9
$PUCSORGFRONT
 10
0.0
 20
0.0
 30
0.0
  9
$PUCSORGBACK
 10
0.0
 20
0.0
 30
0.0
  9
$USERI1
 70
     0
  9
$USERI2
 70
     0
  9
$USERI3
 70
     0
  9
$USERI4
 70
     0
  9
$USERI5
 70
     0
  9
$USERR1
 40
0.0
  9
$USERR2
 40
0.0
  9
$USERR3
 40
0.0
  9
$USERR4
 40
0.0
  9
$USERR5
 40
0.0
  9
$WORLDVIEW
 70
     1
  9
$SHADEDGE
 70
     3
  9
$SHADEDIF
 70
    70
  9
$TILEMODE
 70
     1
  9
$MAXACTVP
 70
    64
  9
$PINSBASE
 10
0.0
 20
0.0
 30
0.0
  9
$PLIMCHECK
 70
     0
  9
$PEXTMIN
 10
1.0000000000E+20
 20
1.0000000000E+20
 30
1.0000000000E+20
  9
$PEXTMAX
 10
-1.0000000000E+20
 20
-1.0000000000E+20
 30
-1.0000000000E+20
  9
$PLIMMIN
 10
0.0
 20
0.0
  9
$PLIMMAX
 10
420.0
 20
297.0
  9
$UNITMODE
 70
     0
  9
$VISRETAIN
 70
     1
  9
$PLINEGEN
 70
     0
  9
$PSLTSCALE
 70
     1
  9
$TREEDEPTH
 70
  3020
  9
$CMLSTYLE
  2
Standard
  9
$CMLJUST
 70
     0
  9
$CMLSCALE
 40
20.0
  9
$PROXYGRAPHICS
 70
     1
  9
$MEASUREMENT
 70
     1
  9
$CELWEIGHT
370
    -1
  9
$ENDCAPS
280
     0
  9
$JOINSTYLE
280
     0
  9
$LWDISPLAY
290
     1
  9
$INSUNITS
 70
     4
  9
$HYPERLINKBASE
  1

  9
$STYLESHEET
  1

  9
$XEDIT
290
     1
  9
$CEPSNTYPE
380
     0
  9
$PSTYLEMODE
290
     1
  9
$FINGERPRINTGUID
  2
{39d42dca-c46d-4b4a-8109-cb767d287adb}
  9
$VERSIONGUID
  2
{FAEB1C32-E019-11D5-929B-00C0DF256EC4}
  9
$EXTNAMES
290
     1
  9
$PSVPSCALE
 40
0.0
  9
$OLESTARTUP
290
     0
  0
ENDSEC
  0
SECTION
  2
CLASSES
  0
CLASS
  1
ACDBDICTIONARYWDFLT
  2
AcDbDictionaryWithDefault
  3
ObjectDBX Classes
 90
        0
280
     0
281
     0
  0
CLASS
  1
VISUALSTYLE
  2
AcDbVisualStyle
  3
ObjectDBX Classes
 90
     4095
280
     0
281
     0
  0
CLASS
  1
MATERIAL
  2
AcDbMaterial
  3
ObjectDBX Classes
 90
     1153
280
     0
281
     0
  0
CLASS
  1
SCALE
  2
AcDbScale
  3
ObjectDBX Classes
 90
     1153
280
     0
281
     0
  0
CLASS
  1
TABLESTYLE
  2
AcDbTableStyle
  3
ObjectDBX Classes
 90
     4095
280
     0
281
     0
  0
CLASS
  1
MLEADERSTYLE
  2
AcDbMLeaderStyle
  3
ACDB_MLEADERSTYLE_CLASS
 90
     4095
280
     0
281
     0
  0
CLASS
  1
SUN
  2
AcDbSun
  3
SCENEOE
 90
     1153
280
     0
281
     0
  0
CLASS
  1
ACDBPLACEHOLDER
  2
AcDbPlaceHolder
  3
ObjectDBX Classes
 90
        0
280
     0
281
     0
  0
CLASS
  1
LAYOUT
  2
AcDbLayout
  3
ObjectDBX Classes
 90
        0
280
     0
281
     0
  0
ENDSEC
  0
SECTION
  2
TABLES
  0
TABLE
  2
VPORT
  5
8
330
0
100
AcDbSymbolTable
 70
     1
  0
VPORT
  5
29
330
8
100
AcDbSymbolTableRecord
100
AcDbViewportTableRecord
  2
*Active
 70
     0
 10
0.0
 20
0.0
 11
1.0
 21
1.0
 12
139.7
 22
107.95
 13
0.0
 23
0.0
 14
10.0
 24
10.0
 15
10.0
 25
10.0
 16
0.0
 26
0.0
 36
1.0
 17
0.0
 27
0.0
 37
0.0
 40
215.9
 41
1.2941176471
 42
50.0
 43
0.0
 44
0.0
 50
0.0
 51
0.0
 71
     0
 72
  2000
 73
     1
 74
     3
 75
     0
 76
     0
 77
     0
 78
     0
281
     0
 65
     1
110
0.0
120
0.0
130
0.0
111
1.0
121
0.0
131
0.0
112
0.0
122
1.0
132
0.0
 79
     0
146
0.0
  0
ENDTAB
  0
TABLE
  2
LTYPE
  5
5
330
0
100
AcDbSymbolTable
 70
     6
  0
LTYPE
  5
14
330
5
100
AcDbSymbolTableRecord
100
AcDbLinetypeTableRecord
  2
ByBlock
 70
     0
  3

 72
    65
 73
     0
 40
0.0
  0
LTYPE
  5
15
330
5
100
AcDbSymbolTableRecord
100
AcDbLinetypeTableRecord
  2
ByLayer
 70
     0
  3

 72
    65
 73
     0
 40
0.0
  0
LTYPE
  5
16
330
5
100
AcDbSymbolTableRecord
100
AcDbLinetypeTableRecord
  2
Continuous
 70
     0
  3
Solid line
 72
    65
 73
     0
 40
0.0
  0
LTYPE
  5
6E
330
5
100
AcDbSymbolTableRecord
100
AcDbLinetypeTableRecord
  2
HIDDEN
 70
     0
  3
Hidden __ __ __ __ __ __ __ __ __ __ __ __ __ __
 72
    65
 73
     2
 40
1.905
 49
1.27
 74
     0
 49
-0.635
 74
     0
  0
LTYPE
  5
6F
330
5
100
AcDbSymbolTableRecord
100
AcDbLinetypeTableRecord
  2
PHANTOM
 70
     0
  3
Phantom ______  __  __  ______  __  __  ______
 72
    65
 73
     6
 40
12.7
 49
6.35
 74
     0
 49
-1.27
 74
     0
 49
1.27
 74
     0
 49
-1.27
 74
     0
 49
1.27
 74
     0
 49
-1.27
 74
     0
  0
LTYPE
  5
70
330
5
100
AcDbSymbolTableRecord
100
AcDbLinetypeTableRecord
  2
CENTER
 70
     0
  3
Center ____ _ ____ _ ____ _ ____ _ ____ _ ____
 72
    65
 73
     4
 40
10.16
 49
6.35
 74
     0
 49
-1.27
 74
     0
 49
1.27
 74
     0
 49
-1.27
 74
     0
  0
LTYPE
  5
71
330
5
100
AcDbSymbolTableRecord
100
AcDbLinetypeTableRecord
  2
CENTERX2
 70
     0
  3
Center (2x) ________  __  ________  __  _____
 72
    65
 73
     4
 40
20.32
 49
12.7
 74
     0
 49
-2.54
 74
     0
 49
2.54
 74
     0
 49
-2.54
 74
     0
  0
LTYPE
  5
72
330
5
100
AcDbSymbolTableRecord
100
AcDbLinetypeTableRecord
  2
DOT2
 70
     0
  3
Dot (.5x) ........................................
 72
    65
 73
     2
 40
0.635
 49
0.0
 74
     0
 49
-0.635
 74
     0
  0
ENDTAB
  0
TABLE
  2
LAYER
  5
2
330
0
100
AcDbSymbolTable
 70
    17
  0
LAYER
  5
10
330
2
100
AcDbSymbolTableRecord
100
AcDbLayerTableRecord
  2
0
 70
     0
 62
     7
  6
Continuous
370
    -3
390
F
  0
LAYER
  5
73
330
2
100
AcDbSymbolTableRecord
100
AcDbLayerTableRecord
  2
FORMAT
 70
     0
 62
     7
  6
Continuous
370
    -3
390
F
  0
LAYER
  5
74
330
2
100
AcDbSymbolTableRecord
100
AcDbLayerTableRecord
  2
YARDIMCI_GEOMETRI
 70
     0
 62
    -6
  6
Continuous
290
     0
370
    -3
390
F
  0
LAYER
  5
75
330
2
100
AcDbSymbolTableRecord
100
AcDbLayerTableRecord
  2
SAYFA_CERCEVESI
 70
     0
 62
     7
  6
Continuous
370
    25
390
F
  0
LAYER
  5
76
330
2
100
AcDbSymbolTableRecord
100
AcDbLayerTableRecord
  2
ANTET
 70
     0
 62
     7
  6
Continuous
370
    -3
390
F
  0
LAYER
  5
77
330
2
100
AcDbSymbolTableRecord
100
AcDbLayerTableRecord
  2
OLCU
 70
     0
 62
   150
  6
Continuous
370
    -3
390
F
  0
LAYER
  5
78
330
2
100
AcDbSymbolTableRecord
100
AcDbLayerTableRecord
  2
METIN
 70
     0
 62
    96
  6
Continuous
370
    -3
390
F
  0
LAYER
  5
79
330
2
100
AcDbSymbolTableRecord
100
AcDbLayerTableRecord
  2
BALON
 70
     0
 62
     5
  6
Continuous
370
    -3
390
F
  0
LAYER
  5
7A
330
2
100
AcDbSymbolTableRecord
100
AcDbLayerTableRecord
  2
VURGU
 70
     0
 62
     7
  6
Continuous
370
    -3
390
F
  0
LAYER
  5
7B
330
2
100
AcDbSymbolTableRecord
100
AcDbLayerTableRecord
  2
SILIK
 70
     0
 62
     7
  6
Continuous
370
    -3
390
F
  0
LAYER
  5
7C
330
2
100
AcDbSymbolTableRecord
100
AcDbLayerTableRecord
  2
MODEL
 70
     0
 62
     7
  6
Continuous
370
    -3
390
F
  0
LAYER
  5
7D
330
2
100
AcDbSymbolTableRecord
100
AcDbLayerTableRecord
  2
DETAYLANDıRMA
 70
     0
 62
   190
  6
Continuous
370
    -3
390
F
  0
LAYER
  5
7E
330
2
100
AcDbSymbolTableRecord
100
AcDbLayerTableRecord
  2
TOLERANS
 70
     0
 62
   230
  6
Continuous
370
    -3
390
F
  0
LAYER
  5
7F
330
2
100
AcDbSymbolTableRecord
100
AcDbLayerTableRecord
  2
MERKEZ_CIZGILERI
 70
     0
 62
    30
  6
Continuous
370
    -3
390
F
  0
LAYER
  5
80
330
2
100
AcDbSymbolTableRecord
100
AcDbLayerTableRecord
  2
KESIT-DETAY_CIZGILERI
 70
     0
 62
     7
  6
Continuous
370
    -3
390
F
  0
LAYER
  5
81
330
2
100
AcDbSymbolTableRecord
100
AcDbLayerTableRecord
  2
\U+041E\U+0421\U+0415\U+0412\U+042B\U+0415
 70
     0
 62
     7
  6
Continuous
370
    -3
390
F
  0
LAYER
  5
82
330
2
100
AcDbSymbolTableRecord
100
AcDbLayerTableRecord
  2
\U+0412\U+041E\U+0414\U+042F\U+041D\U+042B\U+0415_\U+0417\U+041D\U+0410\U+041A\U+0418
 70
     0
 62
    11
  6
Continuous
370
    -3
390
F
  0
ENDTAB
  0
TABLE
  2
STYLE
  5
3
330
0
100
AcDbSymbolTable
 70
     1
  0
STYLE
  5
11
330
3
100
AcDbSymbolTableRecord
100
AcDbTextStyleTableRecord
  2
Standard
 70
     0
 40
0.0
 41
1.0
 50
0.0
 71
     0
 42
3.5
  3
txt
  4

  0
ENDTAB
  0
TABLE
  2
VIEW
  5
6
330
0
100
AcDbSymbolTable
 70
     0
  0
ENDTAB
  0
TABLE
  2
UCS
  5
7
330
0
100
AcDbSymbolTable
 70
     0
  0
ENDTAB
  0
TABLE
  2
APPID
  5
9
330
0
100
AcDbSymbolTable
 70
     1
  0
APPID
  5
12
330
9
100
AcDbSymbolTableRecord
100
AcDbRegAppTableRecord
  2
ACAD
 70
     0
  0
ENDTAB
  0
TABLE
  2
DIMSTYLE
  5
A
330
0
100
AcDbSymbolTable
 70
     1
100
AcDbDimStyleTable
  0
DIMSTYLE
105
27
330
A
100
AcDbSymbolTableRecord
100
AcDbDimStyleTableRecord
  2
ISO-25
 70
     0
 41
2.5
 42
0.625
 43
3.75
 44
1.25
 73
     0
 74
     0
 77
     1
 78
     8
140
2.5
141
2.5
143
0.0393700787
147
0.625
171
     3
172
     1
178
     0
271
     2
272
     2
274
     3
278
    44
283
     0
284
     8
340
11
  0
ENDTAB
  0
TABLE
  2
BLOCK_RECORD
  5
1
330
0
100
AcDbSymbolTable
 70
     6
  0
BLOCK_RECORD
  5
1F
330
1
100
AcDbSymbolTableRecord
100
AcDbBlockTableRecord
  2
*Model_Space
340
22
  0
BLOCK_RECORD
  5
1B
330
1
100
AcDbSymbolTableRecord
100
AcDbBlockTableRecord
  2
*Paper_Space
340
1E
  0
BLOCK_RECORD
  5
23
330
1
100
AcDbSymbolTableRecord
100
AcDbBlockTableRecord
  2
*Paper_Space0
340
26
  0
BLOCK_RECORD
  5
8F
330
1
100
AcDbSymbolTableRecord
100
AcDbBlockTableRecord
  2
SW_CENTERMARKSYMBOL_0
340
0
102
{BLKREFS
331
9A
102
}
  0
BLOCK_RECORD
  5
9B
330
1
100
AcDbSymbolTableRecord
100
AcDbBlockTableRecord
  2
SW_CENTERMARKSYMBOL_1
340
0
102
{BLKREFS
331
A6
102
}
  0
BLOCK_RECORD
  5
A7
330
1
100
AcDbSymbolTableRecord
100
AcDbBlockTableRecord
  2
SW_CENTERMARKSYMBOL_2
340
0
102
{BLKREFS
331
B2
102
}
  0
BLOCK_RECORD
  5
B3
330
1
100
AcDbSymbolTableRecord
100
AcDbBlockTableRecord
  2
SW_CENTERMARKSYMBOL_3
340
0
102
{BLKREFS
331
BE
102
}
  0
BLOCK_RECORD
  5
BF
330
1
100
AcDbSymbolTableRecord
100
AcDbBlockTableRecord
  2
SW_CENTERMARKSYMBOL_4
340
0
102
{BLKREFS
331
CA
102
}
  0
ENDTAB
  0
ENDSEC
  0
SECTION
  2
BLOCKS
  0
BLOCK
  5
20
330
1F
100
AcDbEntity
  8
0
100
AcDbBlockBegin
  2
*Model_Space
 70
     0
 10
0.0
 20
0.0
 30
0.0
  3
*Model_Space
  1

  0
ENDBLK
  5
21
330
1F
100
AcDbEntity
  8
0
100
AcDbBlockEnd
  0
BLOCK
  5
1C
330
1B
100
AcDbEntity
 67
     1
  8
0
100
AcDbBlockBegin
  2
*Paper_Space
 70
     0
 10
0.0
 20
0.0
 30
0.0
  3
*Paper_Space
  1

  0
ENDBLK
  5
1D
330
1B
100
AcDbEntity
 67
     1
  8
0
100
AcDbBlockEnd
  0
BLOCK
  5
24
330
23
100
AcDbEntity
  8
0
100
AcDbBlockBegin
  2
*Paper_Space0
 70
     0
 10
0.0
 20
0.0
 30
0.0
  3
*Paper_Space0
  1

  0
ENDBLK
  5
25
330
23
100
AcDbEntity
  8
0
100
AcDbBlockEnd
  0
BLOCK
  5
90
330
8F
100
AcDbEntity
  8
0
100
AcDbBlockBegin
  2
SW_CENTERMARKSYMBOL_0
 70
     0
 10
0.0
 20
0.0
 30
0.0
  3
SW_CENTERMARKSYMBOL_0
  1

  0
LINE
  5
92
330
8F
100
AcDbEntity
  8
FORMAT
 62
     0
100
AcDbLine
 10
0.0
 20
0.0
 30
0.0
 11
0.0
 21
2.5
 31
0.0
  0
LINE
  5
93
330
8F
100
AcDbEntity
  8
FORMAT
 62
     0
100
AcDbLine
 10
0.0
 20
0.0
 30
0.0
 11
-2.5
 21
0.0
 31
0.0
  0
LINE
  5
94
330
8F
100
AcDbEntity
  8
FORMAT
 62
     0
100
AcDbLine
 10
0.0
 20
0.0
 30
0.0
 11
0.0
 21
-2.5
 31
0.0
  0
LINE
  5
95
330
8F
100
AcDbEntity
  8
FORMAT
 62
     0
100
AcDbLine
 10
0.0
 20
0.0
 30
0.0
 11
2.5
 21
0.0
 31
0.0
  0
LINE
  5
96
330
8F
100
AcDbEntity
  8
FORMAT
 62
     0
100
AcDbLine
 10
0.0
 20
5.0
 30
0.0
 11
0.0
 21
60.0
 31
0.0
  0
LINE
  5
97
330
8F
100
AcDbEntity
  8
FORMAT
 62
     0
100
AcDbLine
 10
-5.0
 20
0.0
 30
0.0
 11
-60.0
 21
0.0
 31
0.0
  0
LINE
  5
98
330
8F
100
AcDbEntity
  8
FORMAT
 62
     0
100
AcDbLine
 10
0.0
 20
-5.0
 30
0.0
 11
0.0
 21
-60.0
 31
0.0
  0
LINE
  5
99
330
8F
100
AcDbEntity
  8
FORMAT
 62
     0
100
AcDbLine
 10
5.0
 20
0.0
 30
0.0
 11
60.0
 21
0.0
 31
0.0
  0
ENDBLK
  5
91
330
8F
100
AcDbEntity
  8
0
100
AcDbBlockEnd
  0
BLOCK
  5
9C
330
9B
100
AcDbEntity
  8
0
100
AcDbBlockBegin
  2
SW_CENTERMARKSYMBOL_1
 70
     0
 10
0.0
 20
0.0
 30
0.0
  3
SW_CENTERMARKSYMBOL_1
  1

  0
LINE
  5
9E
330
9B
100
AcDbEntity
  8
FORMAT
 62
     0
100
AcDbLine
 10
0.0
 20
0.0
 30
0.0
 11
0.0
 21
2.5
 31
0.0
  0
LINE
  5
9F
330
9B
100
AcDbEntity
  8
FORMAT
 62
     0
100
AcDbLine
 10
0.0
 20
0.0
 30
0.0
 11
-2.5
 21
0.0
 31
0.0
  0
LINE
  5
A0
330
9B
100
AcDbEntity
  8
FORMAT
 62
     0
100
AcDbLine
 10
0.0
 20
0.0
 30
0.0
 11
0.0
 21
-2.5
 31
0.0
  0
LINE
  5
A1
330
9B
100
AcDbEntity
  8
FORMAT
 62
     0
100
AcDbLine
 10
0.0
 20
0.0
 30
0.0
 11
2.5
 21
0.0
 31
0.0
  0
LINE
  5
A2
330
9B
100
AcDbEntity
  8
FORMAT
 62
     0
100
AcDbLine
 10
0.0
 20
5.0
 30
0.0
 11
0.0
 21
9.5
 31
0.0
  0
LINE
  5
A3
330
9B
100
AcDbEntity
  8
FORMAT
 62
     0
100
AcDbLine
 10
-5.0
 20
0.0
 30
0.0
 11
-9.5
 21
0.0
 31
0.0
  0
LINE
  5
A4
330
9B
100
AcDbEntity
  8
FORMAT
 62
     0
100
AcDbLine
 10
0.0
 20
-5.0
 30
0.0
 11
0.0
 21
-9.5
 31
0.0
  0
LINE
  5
A5
330
9B
100
AcDbEntity
  8
FORMAT
 62
     0
100
AcDbLine
 10
5.0
 20
0.0
 30
0.0
 11
9.5
 21
0.0
 31
0.0
  0
ENDBLK
  5
9D
330
9B
100
AcDbEntity
  8
0
100
AcDbBlockEnd
  0
BLOCK
  5
A8
330
A7
100
AcDbEntity
  8
0
100
AcDbBlockBegin
  2
SW_CENTERMARKSYMBOL_2
 70
     0
 10
0.0
 20
0.0
 30
0.0
  3
SW_CENTERMARKSYMBOL_2
  1

  0
LINE
  5
AA
330
A7
100
AcDbEntity
  8
FORMAT
 62
     0
100
AcDbLine
 10
0.0
 20
0.0
 30
0.0
 11
0.0
 21
2.5
 31
0.0
  0
LINE
  5
AB
330
A7
100
AcDbEntity
  8
FORMAT
 62
     0
100
AcDbLine
 10
0.0
 20
0.0
 30
0.0
 11
-2.5
 21
0.0
 31
0.0
  0
LINE
  5
AC
330
A7
100
AcDbEntity
  8
FORMAT
 62
     0
100
AcDbLine
 10
0.0
 20
0.0
 30
0.0
 11
0.0
 21
-2.5
 31
0.0
  0
LINE
  5
AD
330
A7
100
AcDbEntity
  8
FORMAT
 62
     0
100
AcDbLine
 10
0.0
 20
0.0
 30
0.0
 11
2.5
 21
0.0
 31
0.0
  0
LINE
  5
AE
330
A7
100
AcDbEntity
  8
FORMAT
 62
     0
100
AcDbLine
 10
0.0
 20
5.0
 30
0.0
 11
0.0
 21
9.5
 31
0.0
  0
LINE
  5
AF
330
A7
100
AcDbEntity
  8
FORMAT
 62
     0
100
AcDbLine
 10
-5.0
 20
0.0
 30
0.0
 11
-9.5
 21
0.0
 31
0.0
  0
LINE
  5
B0
330
A7
100
AcDbEntity
  8
FORMAT
 62
     0
100
AcDbLine
 10
0.0
 20
-5.0
 30
0.0
 11
0.0
 21
-9.5
 31
0.0
  0
LINE
  5
B1
330
A7
100
AcDbEntity
  8
FORMAT
 62
     0
100
AcDbLine
 10
5.0
 20
0.0
 30
0.0
 11
9.5
 21
0.0
 31
0.0
  0
ENDBLK
  5
A9
330
A7
100
AcDbEntity
  8
0
100
AcDbBlockEnd
  0
BLOCK
  5
B4
330
B3
100
AcDbEntity
  8
0
100
AcDbBlockBegin
  2
SW_CENTERMARKSYMBOL_3
 70
     0
 10
0.0
 20
0.0
 30
0.0
  3
SW_CENTERMARKSYMBOL_3
  1

  0
LINE
  5
B6
330
B3
100
AcDbEntity
  8
FORMAT
 62
     0
100
AcDbLine
 10
0.0
 20
0.0
 30
0.0
 11
0.0
 21
2.5
 31
0.0
  0
LINE
  5
B7
330
B3
100
AcDbEntity
  8
FORMAT
 62
     0
100
AcDbLine
 10
0.0
 20
0.0
 30
0.0
 11
-2.5
 21
0.0
 31
0.0
  0
LINE
  5
B8
330
B3
100
AcDbEntity
  8
FORMAT
 62
     0
100
AcDbLine
 10
0.0
 20
0.0
 30
0.0
 11
0.0
 21
-2.5
 31
0.0
  0
LINE
  5
B9
330
B3
100
AcDbEntity
  8
FORMAT
 62
     0
100
AcDbLine
 10
0.0
 20
0.0
 30
0.0
 11
2.5
 21
0.0
 31
0.0
  0
LINE
  5
BA
330
B3
100
AcDbEntity
  8
FORMAT
 62
     0
100
AcDbLine
 10
0.0
 20
5.0
 30
0.0
 11
0.0
 21
9.5
 31
0.0
  0
LINE
  5
BB
330
B3
100
AcDbEntity
  8
FORMAT
 62
     0
100
AcDbLine
 10
-5.0
 20
0.0
 30
0.0
 11
-9.5
 21
0.0
 31
0.0
  0
LINE
  5
BC
330
B3
100
AcDbEntity
  8
FORMAT
 62
     0
100
AcDbLine
 10
0.0
 20
-5.0
 30
0.0
 11
0.0
 21
-9.5
 31
0.0
  0
LINE
  5
BD
330
B3
100
AcDbEntity
  8
FORMAT
 62
     0
100
AcDbLine
 10
5.0
 20
0.0
 30
0.0
 11
9.5
 21
0.0
 31
0.0
  0
ENDBLK
  5
B5
330
B3
100
AcDbEntity
  8
0
100
AcDbBlockEnd
  0
BLOCK
  5
C0
330
BF
100
AcDbEntity
  8
0
100
AcDbBlockBegin
  2
SW_CENTERMARKSYMBOL_4
 70
     0
 10
0.0
 20
0.0
 30
0.0
  3
SW_CENTERMARKSYMBOL_4
  1

  0
LINE
  5
C2
330
BF
100
AcDbEntity
  8
FORMAT
 62
     0
100
AcDbLine
 10
0.0
 20
0.0
 30
0.0
 11
0.0
 21
2.5
 31
0.0
  0
LINE
  5
C3
330
BF
100
AcDbEntity
  8
FORMAT
 62
     0
100
AcDbLine
 10
0.0
 20
0.0
 30
0.0
 11
-2.5
 21
0.0
 31
0.0
  0
LINE
  5
C4
330
BF
100
AcDbEntity
  8
FORMAT
 62
     0
100
AcDbLine
 10
0.0
 20
0.0
 30
0.0
 11
0.0
 21
-2.5
 31
0.0
  0
LINE
  5
C5
330
BF
100
AcDbEntity
  8
FORMAT
 62
     0
100
AcDbLine
 10
0.0
 20
0.0
 30
0.0
 11
2.5
 21
0.0
 31
0.0
  0
LINE
  5
C6
330
BF
100
AcDbEntity
  8
FORMAT
 62
     0
100
AcDbLine
 10
0.0
 20
5.0
 30
0.0
 11
0.0
 21
9.5
 31
0.0
  0
LINE
  5
C7
330
BF
100
AcDbEntity
  8
FORMAT
 62
     0
100
AcDbLine
 10
-5.0
 20
0.0
 30
0.0
 11
-9.5
 21
0.0
 31
0.0
  0
LINE
  5
C8
330
BF
100
AcDbEntity
  8
FORMAT
 62
     0
100
AcDbLine
 10
0.0
 20
-5.0
 30
0.0
 11
0.0
 21
-9.5
 31
0.0
  0
LINE
  5
C9
330
BF
100
AcDbEntity
  8
FORMAT
 62
     0
100
AcDbLine
 10
5.0
 20
0.0
 30
0.0
 11
9.5
 21
0.0
 31
0.0
  0
ENDBLK
  5
C1
330
BF
100
AcDbEntity
  8
0
100
AcDbBlockEnd
  0
ENDSEC
  0
SECTION
  2
ENTITIES
  0
CIRCLE
  5
83
330
1F
100
AcDbEntity
  8
0
  6
Continuous
 62
     7
370
    25
100
AcDbCircle
 10
137.8667640332
 20
61.0638469371
 30
0.0
 40
8.0
  0
CIRCLE
  5
84
330
1F
100
AcDbEntity
  8
0
  6
Continuous
 62
     7
370
    25
100
AcDbCircle
 10
137.8667640332
 20
146.0638469371
 30
0.0
 40
8.0
  0
CIRCLE
  5
85
330
1F
100
AcDbEntity
  8
0
  6
Continuous
 62
     7
370
    25
100
AcDbCircle
 10
137.8667640332
 20
103.5638469371
 30
0.0
 40
56.5
  0
CIRCLE
  5
86
330
1F
100
AcDbEntity
  8
0
  6
Continuous
 62
     7
370
    25
100
AcDbCircle
 10
137.8667640332
 20
103.5638469371
 30
0.0
 40
22.0
  0
CIRCLE
  5
87
330
1F
100
AcDbEntity
  8
0
  6
Continuous
 62
     7
370
    25
100
AcDbCircle
 10
180.3667640332
 20
103.5638469371
 30
0.0
 40
8.0
  0
CIRCLE
  5
88
330
1F
100
AcDbEntity
  8
0
  6
Continuous
 62
     7
370
    25
100
AcDbCircle
 10
95.3667640332
 20
103.5638469371
 30
0.0
 40
8.000000000000014
  0
CIRCLE
  5
89
330
1F
100
AcDbEntity
  8
0
  6
Continuous
 62
     7
370
    25
100
AcDbCircle
 10
137.8667640332
 20
103.5638469371
 30
0.0
 40
21.0
  0
CIRCLE
  5
8A
330
1F
100
AcDbEntity
  8
0
  6
Continuous
 62
     7
370
    25
100
AcDbCircle
 10
137.8667640332
 20
103.5638469371
 30
0.0
 40
57.5
  0
CIRCLE
  5
8B
330
1F
100
AcDbEntity
  8
0
  6
Continuous
 62
     7
370
    25
100
AcDbCircle
 10
137.8667640332
 20
146.0638469371
 30
0.0
 40
7.0
  0
CIRCLE
  5
8C
330
1F
100
AcDbEntity
  8
0
  6
Continuous
 62
     7
370
    25
100
AcDbCircle
 10
95.3667640332
 20
103.5638469371
 30
0.0
 40
7.000000000000014
  0
CIRCLE
  5
8D
330
1F
100
AcDbEntity
  8
0
  6
Continuous
 62
     7
370
    25
100
AcDbCircle
 10
180.3667640332
 20
103.5638469371
 30
0.0
 40
7.0
  0
CIRCLE
  5
8E
330
1F
100
AcDbEntity
  8
0
  6
Continuous
 62
     7
370
    25
100
AcDbCircle
 10
137.8667640332
 20
61.0638469371
 30
0.0
 40
6.999999999999972
  0
INSERT
  5
9A
330
1F
100
AcDbEntity
  8
FORMAT
 62
     7
100
AcDbBlockReference
  2
SW_CENTERMARKSYMBOL_0
 10
137.8667640332
 20
103.5638469371
 30
0.0
  0
INSERT
  5
A6
330
1F
100
AcDbEntity
  8
FORMAT
 62
     7
100
AcDbBlockReference
  2
SW_CENTERMARKSYMBOL_1
 10
137.8667640332
 20
146.0638469371
 30
0.0
  0
INSERT
  5
B2
330
1F
100
AcDbEntity
  8
FORMAT
 62
     7
100
AcDbBlockReference
  2
SW_CENTERMARKSYMBOL_2
 10
180.3667640332
 20
103.5638469371
 30
0.0
  0
INSERT
  5
BE
330
1F
100
AcDbEntity
  8
FORMAT
 62
     7
100
AcDbBlockReference
  2
SW_CENTERMARKSYMBOL_3
 10
137.8667640332
 20
61.0638469371
 30
0.0
  0
INSERT
  5
CA
330
1F
100
AcDbEntity
  8
FORMAT
 62
     7
100
AcDbBlockReference
  2
SW_CENTERMARKSYMBOL_4
 10
95.3667640332
 20
103.5638469371
 30
0.0
  0
ARC
  5
CB
330
1F
100
AcDbEntity
  8
0
  6
Continuous
 62
     7
370
    25
100
AcDbCircle
 10
22.9985803271
 20
47.0638469371
 30
0.0
 40
1.000000000000007
100
AcDbArc
 50
270.0
 51
0.0
  0
ARC
  5
CC
330
1F
100
AcDbEntity
  8
0
  6
Continuous
 62
     7
370
    25
100
AcDbCircle
 10
22.9985803271
 20
160.0638469371
 30
0.0
 40
1.000000000000004
100
AcDbArc
 50
0.0
 51
90.0
  0
LINE
  5
CD
330
1F
100
AcDbEntity
  8
0
  6
Continuous
 62
     7
370
    25
100
AcDbLine
 10
22.9985803271
 20
161.0638469371
 30
0.0
 11
8.9985803271
 21
161.0638469371
 31
0.0
  0
LINE
  5
CE
330
1F
100
AcDbEntity
  8
0
  6
Continuous
 62
     7
370
    25
100
AcDbLine
 10
8.9985803271
 20
46.0638469371
 30
0.0
 11
22.9985803271
 21
46.0638469371
 31
0.0
  0
ARC
  5
CF
330
1F
100
AcDbEntity
  8
0
  6
Continuous
 62
     7
370
    25
100
AcDbCircle
 10
8.9985803271
 20
47.0638469371
 30
0.0
 40
1.000000000000007
100
AcDbArc
 50
180.0
 51
270.0
  0
ARC
  5
D0
330
1F
100
AcDbEntity
  8
0
  6
Continuous
 62
     7
370
    25
100
AcDbCircle
 10
8.9985803271
 20
160.0638469371
 30
0.0
 40
1.000000000000002
100
AcDbArc
 50
90.0
 51
180.0
  0
LINE
  5
D1
330
1F
100
AcDbEntity
  8
0
  6
Continuous
 62
     7
370
    25
100
AcDbLine
 10
23.9985803271
 20
103.5638469371
 30
0.0
 11
23.9985803271
 21
47.0638469371
 31
0.0
  0
LINE
  5
D2
330
1F
100
AcDbEntity
  8
0
  6
Continuous
 62
     7
370
    25
100
AcDbLine
 10
23.9985803271
 20
160.0638469371
 30
0.0
 11
23.9985803271
 21
103.5638469371
 31
0.0
  0
LINE
  5
D3
330
1F
100
AcDbEntity
  8
0
  6
Continuous
 62
     7
370
    25
100
AcDbLine
 10
7.9985803271
 20
103.5638469371
 30
0.0
 11
7.9985803271
 21
160.0638469371
 31
0.0
  0
LINE
  5
D4
330
1F
100
AcDbEntity
  8
0
  6
Continuous
 62
     7
370
    25
100
AcDbLine
 10
7.9985803271
 20
47.0638469371
 30
0.0
 11
7.9985803271
 21
103.5638469371
 31
0.0
  0
LINE
  5
D5
330
1F
100
AcDbEntity
  8
0
  6
Continuous
 62
     1
370
    25
100
AcDbLine
 10
22.9985803271
 20
103.5638469371
 30
0.0
 11
22.9985803271
 21
161.0638469371
 31
0.0
  0
LINE
  5
D6
330
1F
100
AcDbEntity
  8
0
  6
Continuous
 62
     1
370
    25
100
AcDbLine
 10
22.9985803271
 20
46.0638469371
 30
0.0
 11
22.9985803271
 21
103.5638469371
 31
0.0
  0
LINE
  5
D7
330
1F
100
AcDbEntity
  8
0
  6
Continuous
 62
     1
370
    25
100
AcDbLine
 10
8.9985803271
 20
103.5638469371
 30
0.0
 11
8.9985803271
 21
46.0638469371
 31
0.0
  0
LINE
  5
D8
330
1F
100
AcDbEntity
  8
0
  6
Continuous
 62
     1
370
    25
100
AcDbLine
 10
8.9985803271
 20
161.0638469371
 30
0.0
 11
8.9985803271
 21
103.5638469371
 31
0.0
  0
ARC
  5
D9
330
1F
100
AcDbEntity
  8
0
  6
Continuous
 62
     7
370
    25
100
AcDbCircle
 10
262.369878158
 20
160.0638469371
 30
0.0
 40
1.0
100
AcDbArc
 50
90.0
 51
180.0
  0
ARC
  5
DA
330
1F
100
AcDbEntity
  8
0
  6
Continuous
 62
     7
370
    25
100
AcDbCircle
 10
262.369878158
 20
47.0638469371
 30
0.0
 40
1.000000000000007
100
AcDbArc
 50
180.0
 51
270.0
  0
LINE
  5
DB
330
1F
100
AcDbEntity
  8
0
  6
Continuous
 62
     7
370
    25
100
AcDbLine
 10
262.369878158
 20
46.0638469371
 30
0.0
 11
276.369878158
 21
46.0638469371
 31
0.0
  0
LINE
  5
DC
330
1F
100
AcDbEntity
  8
0
  6
Continuous
 62
     7
370
    25
100
AcDbLine
 10
276.369878158
 20
161.0638469371
 30
0.0
 11
262.369878158
 21
161.0638469371
 31
0.0
  0
ARC
  5
DD
330
1F
100
AcDbEntity
  8
0
  6
Continuous
 62
     7
370
    25
100
AcDbCircle
 10
276.369878158
 20
160.0638469371
 30
0.0
 40
1.0
100
AcDbArc
 50
0.0
 51
90.0
  0
ARC
  5
DE
330
1F
100
AcDbEntity
  8
0
  6
Continuous
 62
     7
370
    25
100
AcDbCircle
 10
276.369878158
 20
47.0638469371
 30
0.0
 40
1.000000000000007
100
AcDbArc
 50
270.0
 51
0.0
  0
LINE
  5
DF
330
1F
100
AcDbEntity
  8
0
  6
Continuous
 62
     7
370
    25
100
AcDbLine
 10
261.369878158
 20
47.0638469371
 30
0.0
 11
261.369878158
 21
160.0638469371
 31
0.0
  0
LINE
  5
E0
330
1F
100
AcDbEntity
  8
0
  6
Continuous
 62
     7
370
    25
100
AcDbLine
 10
277.369878158
 20
160.0638469371
 30
0.0
 11
277.369878158
 21
47.0638469371
 31
0.0
  0
LINE
  5
E1
330
1F
100
AcDbEntity
  8
0
  6
Continuous
 62
     1
370
    25
100
AcDbLine
 10
262.369878158
 20
161.0638469371
 30
0.0
 11
262.369878158
 21
46.0638469371
 31
0.0
  0
LINE
  5
E2
330
1F
100
AcDbEntity
  8
0
  6
Continuous
 62
     1
370
    25
100
AcDbLine
 10
276.369878158
 20
46.0638469371
 30
0.0
 11
276.369878158
 21
161.0638469371
 31
0.0
  0
ARC
  5
E3
330
1F
100
AcDbEntity
  8
0
  6
Continuous
 62
     7
370
    25
100
AcDbCircle
 10
81.3667640332
 20
190.8944085538
 30
0.0
 40
1.0
100
AcDbArc
 50
180.0
 51
270.0
  0
ARC
  5
E4
330
1F
100
AcDbEntity
  8
0
  6
Continuous
 62
     7
370
    25
100
AcDbCircle
 10
194.3667640332
 20
190.8944085538
 30
0.0
 40
1.0
100
AcDbArc
 50
270.0
 51
0.0
  0
LINE
  5
E5
330
1F
100
AcDbEntity
  8
0
  6
Continuous
 62
     7
370
    25
100
AcDbLine
 10
195.3667640332
 20
190.8944085538
 30
0.0
 11
195.3667640332
 21
204.8944085538
 31
0.0
  0
LINE
  5
E6
330
1F
100
AcDbEntity
  8
0
  6
Continuous
 62
     7
370
    25
100
AcDbLine
 10
80.3667640332
 20
204.8944085538
 30
0.0
 11
80.3667640332
 21
190.8944085538
 31
0.0
  0
ARC
  5
E7
330
1F
100
AcDbEntity
  8
0
  6
Continuous
 62
     7
370
    25
100
AcDbCircle
 10
81.3667640332
 20
204.8944085538
 30
0.0
 40
1.0
100
AcDbArc
 50
90.0
 51
180.0
  0
ARC
  5
E8
330
1F
100
AcDbEntity
  8
0
  6
Continuous
 62
     7
370
    25
100
AcDbCircle
 10
194.3667640332
 20
204.8944085538
 30
0.0
 40
1.0
100
AcDbArc
 50
0.0
 51
90.0
  0
LINE
  5
E9
330
1F
100
AcDbEntity
  8
0
  6
Continuous
 62
     7
370
    25
100
AcDbLine
 10
194.3667640332
 20
189.8944085538
 30
0.0
 11
81.3667640336
 21
189.8944085538
 31
0.0
  0
LINE
  5
EA
330
1F
100
AcDbEntity
  8
0
  6
Continuous
 62
     7
370
    25
100
AcDbLine
 10
81.3667640336
 20
205.8944085538
 30
0.0
 11
194.3667640332
 21
205.8944085538
 31
0.0
  0
LINE
  5
EB
330
1F
100
AcDbEntity
  8
0
  6
Continuous
 62
     1
370
    25
100
AcDbLine
 10
80.3667640332
 20
190.8944085538
 30
0.0
 11
195.3667640332
 21
190.8944085538
 31
0.0
  0
LINE
  5
EC
330
1F
100
AcDbEntity
  8
0
  6
Continuous
 62
     1
370
    25
100
AcDbLine
 10
195.3667640332
 20
204.8944085538
 30
0.0
 11
80.3667640332
 21
204.8944085538
 31
0.0
  0
ARC
  5
ED
330
1F
100
AcDbEntity
  8
0
  6
Continuous
 62
     7
370
    25
100
AcDbCircle
 10
194.3667640332
 20
-37.3174891814
 30
0.0
 40
1.0
100
AcDbArc
 50
0.0
 51
90.0
  0
ARC
  5
EE
330
1F
100
AcDbEntity
  8
0
  6
Continuous
 62
     7
370
    25
100
AcDbCircle
 10
81.3667640332
 20
-37.3174891814
 30
0.0
 40
1.0
100
AcDbArc
 50
90.0
 51
180.0
  0
LINE
  5
EF
330
1F
100
AcDbEntity
  8
0
  6
Continuous
 62
     7
370
    25
100
AcDbLine
 10
80.3667640332
 20
-37.3174891814
 30
0.0
 11
80.3667640332
 21
-51.3174891814
 31
0.0
  0
LINE
  5
F0
330
1F
100
AcDbEntity
  8
0
  6
Continuous
 62
     7
370
    25
100
AcDbLine
 10
195.3667640332
 20
-51.3174891814
 30
0.0
 11
195.3667640332
 21
-37.3174891814
 31
0.0
  0
ARC
  5
F1
330
1F
100
AcDbEntity
  8
0
  6
Continuous
 62
     7
370
    25
100
AcDbCircle
 10
194.3667640332
 20
-51.3174891814
 30
0.0
 40
1.000000000000007
100
AcDbArc
 50
270.0
 51
0.0
  0
ARC
  5
F2
330
1F
100
AcDbEntity
  8
0
  6
Continuous
 62
     7
370
    25
100
AcDbCircle
 10
81.3667640332
 20
-51.3174891814
 30
0.0
 40
1.000000000000007
100
AcDbArc
 50
180.0
 51
270.0
  0
LINE
  5
F3
330
1F
100
AcDbEntity
  8
0
  6
Continuous
 62
     7
370
    25
100
AcDbLine
 10
81.3667640336
 20
-36.3174891814
 30
0.0
 11
194.3667640332
 21
-36.3174891814
 31
0.0
  0
LINE
  5
F4
330
1F
100
AcDbEntity
  8
0
  6
Continuous
 62
     7
370
    25
100
AcDbLine
 10
194.3667640332
 20
-52.3174891814
 30
0.0
 11
81.3667640336
 21
-52.3174891814
 31
0.0
  0
LINE
  5
F5
330
1F
100
AcDbEntity
  8
0
  6
Continuous
 62
     1
370
    25
100
AcDbLine
 10
195.3667640332
 20
-37.3174891814
 30
0.0
 11
80.3667640332
 21
-37.3174891814
 31
0.0
  0
LINE
  5
F6
330
1F
100
AcDbEntity
  8
0
  6
Continuous
 62
     1
370
    25
100
AcDbLine
 10
80.3667640332
 20
-51.3174891814
 30
0.0
 11
195.3667640332
 21
-51.3174891814
 31
0.0
  0
SPLINE
  5
F7
330
1F
100
AcDbEntity
  8
0
  6
Continuous
 62
     7
370
    25
100
AcDbSpline
210
0.0
220
0.0
230
1.0
 70
     8
 71
     3
 72
    79
 73
    75
 74
     0
 42
0.00000001
 43
0.00000001
 40
0.0
 40
0.0
 40
0.0
 40
0.0
 40
0.0134563546239067
 40
0.0272736406041743
 40
0.0411081379562607
 40
0.054964834820908
 40
0.0688470196664469
 40
0.0827562252385174
 40
0.0966923645147369
 40
0.1106540086828409
 40
0.1246387432579281
 40
0.1386435398640282
 40
0.1526650943296152
 40
0.1667001005927149
 40
0.1807454485803343
 40
0.1947983487376458
 40
0.2088563947229828
 40
0.2229175794062978
 40
0.2369802791777411
 40
0.2510429889196252
 40
0.2651047064524055
 40
0.2791647979123861
 40
0.293222829598727
 40
0.3072785293696585
 40
0.3213317534145716
 40
0.3353824584136095
 40
0.3494306787000245
 40
0.3634765078490227
 40
0.3775200840557538
 40
0.3915615786798642
 40
0.4056011873885533
 40
0.4196391234011015
 40
0.433675612412092
 40
0.4477108888402072
 40
0.4617451931110876
 40
0.4757787697348337
 40
0.4898118659811985
 40
0.5038447309888808
 40
0.5178776151703159
 40
0.5319107084326542
 40
0.5459442402802951
 40
0.5599784627866529
 40
0.5740136277684378
 40
0.5880499860560695
 40
0.6020877864033626
 40
0.6161272738810045
 40
0.6301686875715301
 40
0.6442122573445356
 40
0.6582581994420718
 40
0.6723067105452161
 40
0.6863579599240609
 40
0.7004120791969815
 40
0.7144691491459463
 40
0.7285291829626167
 40
0.7425921052521732
 40
0.7566577261267335
 40
0.7707257098221135
 40
0.7847955375358315
 40
0.7988664647015586
 40
0.8129371460519852
 40
0.8270060488646874
 40
0.8410713356330586
 40
0.8551307555887653
 40
0.8691816376072898
 40
0.8832209220658023
 40
0.8972452480991228
 40
0.9112511116722507
 40
0.9252351040542159
 40
0.9391942282415361
 40
0.9531262727835903
 40
0.9670302011052714
 40
0.98090649554321
 40
0.9947573862955861
 40
1.0
 40
1.0
 40
1.0
 40
1.0
 10
296.8112114145172
 20
24.99798113106728
 30
0.0
 10
296.382360013986
 20
25.16969296300516
 30
0.0
 10
295.5131544009068
 20
25.51772234560169
 30
0.0
 10
294.148334414737
 20
25.92868338256071
 30
0.0
 10
292.7336288162485
 20
26.25919994480263
 30
0.0
 10
291.2784664892707
 20
26.49643571131196
 30
0.0
 10
289.7863844249638
 20
26.64217539032105
 30
0.0
 10
288.2595546169943
 20
26.69536229694632
 30
0.0
 10
286.7007006551975
 20
26.65588806147325
 30
0.0
 10
285.1125748775953
 20
26.52361210167995
 30
0.0
 10
283.4980759860366
 20
26.29865397756641
 30
0.0
 10
281.860185298599
 20
25.98133200069595
 30
0.0
 10
280.2019484872019
 20
25.57218497594864
 30
0.0
 10
278.5264468778491
 20
25.07196160555884
 30
0.0
 10
276.8367766403641
 20
24.48161159888119
 30
0.0
 10
275.1360324171964
 20
23.80227251804172
 30
0.0
 10
273.4272963040536
 20
23.03525663767047
 30
0.0
 10
271.7136309778371
 20
22.18203855040248
 30
0.0
 10
269.9980852739787
 20
21.24424950912158
 30
0.0
 10
268.2836842780948
 20
20.2236661454047
 30
0.0
 10
266.5734238213752
 20
19.1222005169368
 30
0.0
 10
264.8702611968355
 20
17.94188659451938
 30
0.0
 10
263.1771232491081
 20
16.6848792758237
 30
0.0
 10
261.4969103396277
 20
15.35345365428911
 30
0.0
 10
259.8324946627731
 20
13.95000162251525
 30
0.0
 10
258.1867179916731
 20
12.47702861315775
 30
0.0
 10
256.562388905487
 20
10.93715031600783
 30
0.0
 10
254.9622795736825
 20
9.333089258109876
 30
0.0
 10
253.3891221816162
 20
7.66767117278671
 30
0.0
 10
251.8456050810332
 20
5.943821113295083
 30
0.0
 10
250.3343687432796
 20
4.164559288883915
 30
0.0
 10
248.858001584821
 20
2.332996616764262
 30
0.0
 10
247.4190357257953
 20
0.4523299944065133
 30
0.0
 10
246.0199427338009
 20
-1.474162696080236
 30
0.0
 10
244.663129397417
 20
-3.443127834941606
 30
0.0
 10
243.3509335673035
 20
-5.451141543503859
 30
0.0
 10
242.0856200970494
 20
-7.494715373199266
 30
0.0
 10
240.8693769115635
 20
-9.570302181704303
 30
0.0
 10
239.7043129241179
 20
-11.67429910744807
 30
0.0
 10
238.5924529701657
 20
-13.80305552450624
 30
0.0
 10
237.5357336235013
 20
-15.95288050027388
 30
0.0
 10
236.5359986103224
 20
-18.12005246663784
 30
0.0
 10
235.5949970566686
 20
-20.30082379452713
 30
0.0
 10
234.7143813233237
 20
-22.49142615028967
 30
0.0
 10
233.8957044940648
 20
-24.68807698343744
 30
0.0
 10
233.1404181155741
 20
-26.88698598151339
 30
0.0
 10
232.4498701946515
 20
-29.08436145260085
 30
0.0
 10
231.8253034540984
 20
-31.27641659147636
 30
0.0
 10
231.2678538429482
 20
-33.45937557989413
 30
0.0
 10
230.7785492888722
 20
-35.62947946536799
 30
0.0
 10
230.3583086698569
 20
-37.7829917563874
 30
0.0
 10
230.0079409677501
 20
-39.91620366589839
 30
0.0
 10
229.7281445470182
 20
-42.02543893017459
 30
0.0
 10
229.5195064770382
 20
-44.10705812862044
 30
0.0
 10
229.3825017846663
 20
-46.15746243432833
 30
0.0
 10
229.3174924853994
 20
-48.17309673897441
 30
0.0
 10
229.3247261972128
 20
-50.15045212530257
 30
0.0
 10
229.4043340940416
 20
-52.08606770912935
 30
0.0
 10
229.5563267333254
 20
-53.97651728483566
 30
0.0
 10
229.7805874329947
 20
-55.81841827711584
 30
0.0
 10
230.0768651152276
 20
-57.60843721795028
 30
0.0
 10
230.4447691971018
 20
-59.34330538907083
 30
0.0
 10
230.8837602256187
 20
-61.01981617017127
 30
0.0
 10
231.3931389309042
 20
-62.63482875415313
 30
0.0
 10
231.9720344160005
 20
-64.18528065264358
 30
0.0
 10
232.6193969716138
 20
-65.66819975869461
 30
0.0
 10
233.3339812292815
 20
-67.08074154345489
 30
0.0
 10
234.1143832359954
 20
-68.42015679572155
 30
0.0
 10
234.9589065721108
 20
-69.68403786903377
 30
0.0
 10
235.8661056222709
 20
-70.8695375054999
 30
0.0
 10
236.8328563684348
 20
-71.97640330436089
 30
0.0
 10
237.8616737102753
 20
-72.99578455412862
 30
0.0
 10
238.7121492707412
 20
-73.75436437801086
 30
0.0
 10
239.2381188949548
 20
-74.14298763400129
 30
0.0
 10
239.3825374099659
 20
-74.24969416408432
 30
0.0
  0
LINE
  5
F8
330
1F
100
AcDbEntity
  8
0
  6
Continuous
 62
     7
370
    25
100
AcDbLine
 10
308.9224502054
 20
18.1848004972
 30
0.0
 11
299.0229552688
 21
23.89965728
 31
0.0
  0
LINE
  5
F9
330
1F
100
AcDbEntity
  8
0
  6
Continuous
 62
     7
370
    25
100
AcDbLine
 10
241.5276281422
 20
-75.6959618938
 30
0.0
 11
251.4271230789
 21
-81.4108186765
 31
0.0
  0
SPLINE
  5
FA
330
1F
100
AcDbEntity
  8
0
  6
Continuous
 62
     7
370
    25
100
AcDbSpline
210
0.0
220
0.0
230
1.0
 70
     8
 71
     3
 72
    63
 73
    59
 74
     0
 42
0.00000001
 43
0.00000001
 40
0.0
 40
0.0
 40
0.0
 40
0.0
 40
0.0007140201280773
 40
0.0188295832069524
 40
0.0369599764497783
 40
0.0551135013659398
 40
0.0732965477795631
 40
0.0915132606197909
 40
0.1097654863544313
 40
0.1280529676014164
 40
0.146373718303196
 40
0.1647244951258781
 40
0.1831012839383265
 40
0.2014997382810056
 40
0.2199155316868488
 40
0.238344609949459
 40
0.2567833479570812
 40
0.2752286267642296
 40
0.2936778508900525
 40
0.3121289253868066
 40
0.3305798776828033
 40
0.3490294570501933
 40
0.3674768529430998
 40
0.3859215135003981
 40
0.4043630953948985
 40
0.4228014207625314
 40
0.4412364411769835
 40
0.4596682081387137
 40
0.4780968493116522
 40
0.4965225496699969
 40
0.514945536742291
 40
0.5333660692137173
 40
0.5517844282417349
 40
0.5702009109372459
 40
0.5886158255543807
 40
0.6070294880118168
 40
0.6254422194360328
 40
0.6438543444716667
 40
0.6622661901471396
 40
0.6806780851156417
 40
0.6990902705615468
 40
0.7175030556957425
 40
0.7359167712526995
 40
0.7543317475713988
 40
0.7727483136103392
 40
0.7911667954745356
 40
0.8095875142491613
 40
0.8280107828973355
 40
0.8464369019274725
 40
0.8648661534707021
 40
0.8832987933304338
 40
0.9017350404751805
 40
0.9201750633448906
 40
0.938618962237557
 40
0.9570667469495703
 40
0.9755183087844156
 40
0.9939733860576084
 40
1.0
 40
1.0
 40
1.0
 40
1.0
 10
253.6503346952589
 20
-82.51326609539488
 30
0.0
 10
253.6672324345746
 20
-82.52107218745171
 30
0.0
 10
254.1128464669268
 20
-82.72692837290771
 30
0.0
 10
255.030051686019
 20
-83.0485469385783
 30
0.0
 10
256.4026376492488
 20
-83.4699288536254
 30
0.0
 10
257.8221945845619
 20
-83.79012452548463
 30
0.0
 10
259.2796591808811
 20
-84.0216111179196
 30
0.0
 10
260.7745054851072
 20
-84.16032594246823
 30
0.0
 10
262.3037392491018
 20
-84.20679521893481
 30
0.0
 10
263.8648443655127
 20
-84.16050038024395
 30
0.0
 10
265.4550005197135
 20
-84.0214286598838
 30
0.0
 10
267.0713171703638
 20
-83.78968453466123
 30
0.0
 10
268.7108032559937
 20
-83.46561040537237
 30
0.0
 10
270.3704107463417
 20
-83.0497586012391
 30
0.0
 10
272.0470562652687
 20
-82.54289352321376
 30
0.0
 10
273.7376433498674
 20
-81.94597894902394
 30
0.0
 10
275.4390779377102
 20
-81.26016573520131
 30
0.0
 10
277.148279173578
 20
-80.48677844837118
 30
0.0
 10
278.8621859814672
 20
-79.62730313819291
 30
0.0
 10
280.5777504141004
 20
-78.68338232111047
 30
0.0
 10
282.2919495189921
 20
-77.65680281144458
 30
0.0
 10
284.001789612362
 20
-76.5494863247811
 30
0.0
 10
285.7043164353782
 20
-75.36347535734484
 30
0.0
 10
287.3966050404862
 20
-74.1009337399302
 30
0.0
 10
289.0757570668445
 20
-72.76414524106924
 30
0.0
 10
290.7389024669972
 20
-71.35551018711745
 30
0.0
 10
292.3832018012081
 20
-69.87754220626582
 30
0.0
 10
294.0058490454105
 20
-68.33286493888708
 30
0.0
 10
295.6040748361204
 20
-66.72420860428502
 30
0.0
 10
297.1751500678152
 20
-65.05440635219092
 30
0.0
 10
298.7163897594478
 20
-63.32639035660048
 30
0.0
 10
300.2251571128521
 20
-61.54318763106738
 30
0.0
 10
301.69886769409
 20
-59.7079155599142
 30
0.0
 10
303.1349936776542
 20
-57.82377715041763
 30
0.0
 10
304.5310681019249
 20
-55.89405601815328
 30
0.0
 10
305.8846890919067
 20
-53.92211112231592
 30
0.0
 10
307.1935240118451
 20
-51.91137127083584
 30
0.0
 10
308.455313515931
 20
-49.86532941681736
 30
0.0
 10
309.6678754695762
 20
-47.78753676961802
 30
0.0
 10
310.8291068569088
 20
-45.68160011879619
 30
0.0
 10
311.9369891966871
 20
-43.55117326508962
 30
0.0
 10
312.9895925162443
 20
-41.39994984212765
 30
0.0
 10
313.9850800460974
 20
-39.23165332154498
 30
0.0
 10
314.9217096632661
 20
-37.05003307080646
 30
0.0
 10
315.7978362030915
 20
-34.85885868572772
 30
0.0
 10
316.6119139500791
 20
-32.66191350544449
 30
0.0
 10
317.3624988895439
 20
-30.46298815545421
 30
0.0
 10
318.0482506530507
 20
-28.265874194539
 30
0.0
 10
318.6679343868969
 20
-26.0743577751736
 30
0.0
 10
319.2204216888954
 20
-23.89221387050426
 30
0.0
 10
319.7046938350354
 20
-21.72319924576354
 30
0.0
 10
320.1198353414816
 20
-19.5710512482191
 30
0.0
 10
320.465062617307
 20
-17.43946630917481
 30
0.0
 10
320.7396208306737
 20
-15.33215594727799
 30
0.0
 10
320.9431722772939
 20
-13.2526155529638
 30
0.0
 10
321.0743498116793
 20
-11.20496787820244
 30
0.0
 10
321.1222819623769
 20
-9.6430560498648
 30
0.0
 10
321.125522148407
 20
-8.765505077016446
 30
0.0
 10
321.1263197791807
 20
-8.549479930650715
 30
0.0
  0
SPLINE
  5
FB
330
1F
100
AcDbEntity
  8
0
  6
Continuous
 62
     7
370
    25
100
AcDbSpline
210
0.0
220
0.0
230
1.0
 70
     8
 71
     3
 72
    25
 73
    21
 74
     0
 42
0.00000001
 43
0.00000001
 40
0.0
 40
0.0
 40
0.0
 40
0.0
 40
0.0313535714925806
 40
0.090849053449843
 40
0.1503546574336155
 40
0.2098597238343277
 40
0.269357772941722
 40
0.3288411577465743
 40
0.3883004905039675
 40
0.447724603203913
 40
0.5071006679051415
 40
0.5664145461958614
 40
0.6256514339043897
 40
0.6847968442460137
 40
0.7438379237041788
 40
0.8027650200490855
 40
0.8615733319030989
 40
0.9202643876201746
 40
0.9788470590255506
 40
1.0
 40
1.0
 40
1.0
 40
1.0
 10
321.1263197791807
 20
-8.549479930650715
 30
0.0
 10
321.1242998459824
 20
-8.202619562340884
 30
0.0
 10
321.1184469555346
 20
-7.197568633847181
 30
0.0
 10
321.0534247774061
 20
-5.565777490103073
 30
0.0
 10
320.9075152828333
 20
-3.671541372961939
 30
0.0
 10
320.6883383860821
 20
-1.826078933261637
 30
0.0
 10
320.3973845216565
 20
-0.0321147203806264
 30
0.0
 10
320.0347002127878
 20
1.706898382558899
 30
0.0
 10
319.6009029942344
 20
3.38779717876924
 30
0.0
 10
319.0966560874183
 20
5.007422844018686
 30
0.0
 10
318.5228239120045
 20
6.562710181301161
 30
0.0
 10
317.8804408572599
 20
8.050678552352766
 30
0.0
 10
317.1707390930868
 20
9.46847466374065
 30
0.0
 10
316.395107974202
 20
10.81333688521265
 30
0.0
 10
315.5552340978494
 20
12.08284795147662
 30
0.0
 10
314.6525408791907
 20
13.27413094346338
 30
0.0
 10
313.6901844864117
 20
14.38696969752529
 30
0.0
 10
312.6654915282633
 20
15.41229885464918
 30
0.0
 10
311.8247133410507
 20
16.17056234695721
 30
0.0
 10
311.3072432282631
 20
16.55729282552266
 30
0.0
 10
311.169964358444
 20
16.65988797393823
 30
0.0
  0
SPLINE
  5
FC
330
1F
100
AcDbEntity
  8
0
  6
Continuous
 62
     7
370
    25
100
AcDbSpline
210
0.0
220
0.0
230
1.0
 70
     8
 71
     3
 72
    14
 73
    10
 74
     0
 42
0.00000001
 43
0.00000001
 40
0.0
 40
0.0
 40
0.0
 40
0.0
 40
0.1401650487359226
 40
0.2953202441308189
 40
0.4417070502528355
 40
0.597420872816597
 40
0.7477010030150598
 40
0.8956207731465609
 40
1.0
 40
1.0
 40
1.0
 40
1.0
 10
303.8368433529367
 20
-2.501465515720485
 30
0.0
 10
303.9268579005534
 20
-2.557703390162588
 30
0.0
 10
304.1165137271468
 20
-2.676193576977501
 30
0.0
 10
304.3597180119036
 20
-2.94616606615266
 30
0.0
 10
304.5855836709395
 20
-3.29914620941403
 30
0.0
 10
304.7696087172523
 20
-3.734399006304585
 30
0.0
 10
304.903014573869
 20
-4.253394515466167
 30
0.0
 10
304.9735260786726
 20
-4.774467847937673
 30
0.0
 10
304.9810651486249
 20
-5.134781325219686
 30
0.0
 10
304.984184155447
 20
-5.283847483361467
 30
0.0
  0
SPLINE
  5
FD
330
1F
100
AcDbEntity
  8
0
  6
Continuous
 62
     7
370
    25
100
AcDbSpline
210
0.0
220
0.0
230
1.0
 70
     8
 71
     3
 72
    28
 73
    24
 74
     0
 42
0.00000001
 43
0.00000001
 40
0.0
 40
0.0
 40
0.0
 40
0.0
 40
0.0251233745704765
 40
0.0733552836615142
 40
0.1217694125592784
 40
0.1703743445739209
 40
0.2191560714308507
 40
0.2680794643956404
 40
0.3170999919718409
 40
0.366169316833808
 40
0.4152363247285655
 40
0.4642352967869359
 40
0.5131158053776393
 40
0.5618287031277
 40
0.6103295216290853
 40
0.6585860576063696
 40
0.7065934714662244
 40
0.7544022889523112
 40
0.8021546359522574
 40
0.8500719529834838
 40
0.8986890344558036
 40
0.9489511453059284
 40
1.0
 40
1.0
 40
1.0
 40
1.0
 10
304.984184155447
 20
-5.283847483361467
 30
0.0
 10
304.9824651266343
 20
-5.396647955787627
 30
0.0
 10
304.977445902572
 20
-5.726003020281915
 30
0.0
 10
304.9205073335165
 20
-6.30747571234317
 30
0.0
 10
304.7907529240073
 20
-7.031215329194235
 30
0.0
 10
304.5951945500819
 20
-7.77985807372603
 30
0.0
 10
304.3365735334235
 20
-8.54096145845153
 30
0.0
 10
304.0175769445718
 20
-9.303012930418838
 30
0.0
 10
303.6425160575628
 20
-10.05415025920274
 30
0.0
 10
303.2167583816277
 20
-10.78280528495305
 30
0.0
 10
302.7467986702769
 20
-11.47774327914431
 30
0.0
 10
302.240096688767
 20
-12.12837865823683
 30
0.0
 10
301.704976382508
 20
-12.72497899315278
 30
0.0
 10
301.1504597308968
 20
-13.25892078982172
 30
0.0
 10
300.5862007844457
 20
-13.72284713327529
 30
0.0
 10
300.0223227133635
 20
-14.11094015881629
 30
0.0
 10
299.4691755168033
 20
-14.41921304750662
 30
0.0
 10
298.9369399170059
 20
-14.64585200957043
 30
0.0
 10
298.4354101500092
 20
-14.79118561289595
 30
0.0
 10
297.9722592310281
 20
-14.85862680176348
 30
0.0
 10
297.55279037189
 20
-14.85133911705078
 30
0.0
 10
297.177104998098
 20
-14.78070740497802
 30
0.0
 10
296.9650847467718
 20
-14.67858946483894
 30
0.0
 10
296.8582513853087
 20
-14.62713398951288
 30
0.0
  0
SPLINE
  5
FE
330
1F
100
AcDbEntity
  8
0
  6
Continuous
 62
     7
370
    25
100
AcDbSpline
210
0.0
220
0.0
230
1.0
 70
     8
 71
     3
 72
    14
 73
    10
 74
     0
 42
0.00000001
 43
0.00000001
 40
0.0
 40
0.0
 40
0.0
 40
0.0
 40
0.1401650487359155
 40
0.2953202441308197
 40
0.4417070502528342
 40
0.597420872816604
 40
0.7477010030150731
 40
0.8956207731465696
 40
0.9999999999999999
 40
0.9999999999999999
 40
0.9999999999999999
 40
0.9999999999999999
 10
273.7848051525085
 20
-54.55312239709433
 30
0.0
 10
273.8748197001252
 20
-54.60936027153643
 30
0.0
 10
274.0644755267186
 20
-54.72785045835134
 30
0.0
 10
274.3076798114753
 20
-54.9978229475265
 30
0.0
 10
274.5335454705113
 20
-55.35080309078788
 30
0.0
 10
274.717570516824
 20
-55.78605588767846
 30
0.0
 10
274.8509763734409
 20
-56.30505139684004
 30
0.0
 10
274.9214878782444
 20
-56.82612472931154
 30
0.0
 10
274.9290269481967
 20
-57.18643820659354
 30
0.0
 10
274.9321459550188
 20
-57.33550436473532
 30
0.0
  0
SPLINE
  5
FF
330
1F
100
AcDbEntity
  8
0
  6
Continuous
 62
     7
370
    25
100
AcDbSpline
210
0.0
220
0.0
230
1.0
 70
     8
 71
     3
 72
    28
 73
    24
 74
     0
 42
0.00000001
 43
0.00000001
 40
0.0
 40
0.0
 40
0.0
 40
0.0
 40
0.0251233745704763
 40
0.0733552836615124
 40
0.121769412559277
 40
0.1703743445739201
 40
0.2191560714308523
 40
0.268079464395641
 40
0.3170999919718417
 40
0.3661693168338067
 40
0.4152363247285598
 40
0.4642352967869305
 40
0.5131158053776304
 40
0.5618287031276921
 40
0.6103295216290774
 40
0.6585860576063648
 40
0.7065934714662175
 40
0.754402288952308
 40
0.802154635952259
 40
0.8500719529834813
 40
0.8986890344558023
 40
0.9489511453059271
 40
1.0
 40
1.0
 40
1.0
 40
1.0
 10
274.9321459550188
 20
-57.33550436473532
 30
0.0
 10
274.9304269262062
 20
-57.44830483716147
 30
0.0
 10
274.9254077021437
 20
-57.77765990165575
 30
0.0
 10
274.8684691330883
 20
-58.35913259371699
 30
0.0
 10
274.7387147235791
 20
-59.08287221056805
 30
0.0
 10
274.5431563496537
 20
-59.83151495509988
 30
0.0
 10
274.2845353329952
 20
-60.59261833982536
 30
0.0
 10
273.9655387441437
 20
-61.3546698117927
 30
0.0
 10
273.5904778571346
 20
-62.10580714057658
 30
0.0
 10
273.1647201811995
 20
-62.83446216632685
 30
0.0
 10
272.6947604698487
 20
-63.52940016051809
 30
0.0
 10
272.1880584883389
 20
-64.18003553961057
 30
0.0
 10
271.6529381820799
 20
-64.77663587452653
 30
0.0
 10
271.0984215304687
 20
-65.31057767119549
 30
0.0
 10
270.5341625840176
 20
-65.77450401464907
 30
0.0
 10
269.9702845129354
 20
-66.1625970401901
 30
0.0
 10
269.4171373163751
 20
-66.4708699288804
 30
0.0
 10
268.8849017165777
 20
-66.69750889094428
 30
0.0
 10
268.383371949581
 20
-66.84284249426977
 30
0.0
 10
267.9202210306
 20
-66.91028368313732
 30
0.0
 10
267.5007521714618
 20
-66.90299599842461
 30
0.0
 10
267.1250667976698
 20
-66.83236428635186
 30
0.0
 10
266.9130465463436
 20
-66.7302463462128
 30
0.0
 10
266.8062131848805
 20
-66.67879087088674
 30
0.0
  0
SPLINE
  5
100
330
1F
100
AcDbEntity
  8
0
  6
Continuous
 62
     7
370
    25
100
AcDbSpline
210
0.0
220
0.0
230
1.0
 70
     8
 71
     3
 72
    19
 73
    15
 74
     0
 42
0.00000001
 43
0.00000001
 40
0.0
 40
0.0
 40
0.0
 40
0.0
 40
0.0290331800025428
 40
0.1215678086615605
 40
0.2138499990100829
 40
0.3053634870203462
 40
0.395889336532794
 40
0.4854569515781652
 40
0.5742350724083694
 40
0.6624326272315384
 40
0.7502424589952373
 40
0.837819681871183
 40
0.9252789957817361
 40
1.0
 40
1.0
 40
1.0
 40
1.0
 10
280.7974151522828
 20
-7.736900223918004
 30
0.0
 10
280.8710236882875
 20
-7.776391445835761
 30
0.0
 10
281.1792375463661
 20
-7.941749195468747
 30
0.0
 10
281.6704762771411
 20
-8.320746797644471
 30
0.0
 10
282.2674833600395
 20
-8.873964430326575
 30
0.0
 10
282.8040817832659
 20
-9.515050878841556
 30
0.0
 10
283.2819334742113
 20
-10.23161814721153
 30
0.0
 10
283.6980922775291
 20
-11.02150080797802
 30
0.0
 10
284.0517163238823
 20
-11.88034212298041
 30
0.0
 10
284.3415448211289
 20
-12.80480973483479
 30
0.0
 10
284.5669069238411
 20
-13.79096325737148
 30
0.0
 10
284.7251078638618
 20
-14.83585326822116
 30
0.0
 10
284.816231917633
 20
-15.87837969733772
 30
0.0
 10
284.8267807498667
 20
-16.58986288976025
 30
0.0
 10
284.8316408916331
 20
-16.91766307683351
 30
0.0
  0
SPLINE
  5
101
330
1F
100
AcDbEntity
  8
0
  6
Continuous
 62
     7
370
    25
100
AcDbSpline
210
0.0
220
0.0
230
1.0
 70
     8
 71
     3
 72
    42
 73
    38
 74
     0
 42
0.00000001
 43
0.00000001
 40
0.0
 40
0.0
 40
0.0
 40
0.0
 40
0.0151251343420479
 40
0.0439937531730043
 40
0.0728843118405035
 40
0.1017954987596558
 40
0.1307294508760898
 40
0.1596861175701548
 40
0.1886640210908069
 40
0.2176607801612278
 40
0.2466734596574194
 40
0.2756987971925376
 40
0.3047333444767627
 40
0.3337735510689935
 40
0.3628158105619123
 40
0.3918559297748254
 40
0.4208895918069787
 40
0.4499131339595594
 40
0.478922912780094
 40
0.5079153506680469
 40
0.5368870209977149
 40
0.5658347919231834
 40
0.5947560569800705
 40
0.6236490908664112
 40
0.6525135814875981
 40
0.6813514032092347
 40
0.7101677074782399
 40
0.738972406618841
 40
0.7677774087112458
 40
0.7966035453242029
 40
0.8254838368669799
 40
0.8544639835385927
 40
0.8836028019332037
 40
0.9129686204747703
 40
0.9426278847513068
 40
0.9726221266542958
 40
1.0
 40
1.0
 40
1.0
 40
1.0
 10
284.8316408916331
 20
-16.91766307683351
 30
0.0
 10
284.8297539451532
 20
-17.12170593401671
 30
0.0
 10
284.824265474386
 20
-17.71519561104239
 30
0.0
 10
284.7629533835343
 20
-18.73033957449235
 30
0.0
 10
284.6248313779682
 20
-19.97011892958312
 30
0.0
 10
284.417317396752
 20
-21.24018772767449
 30
0.0
 10
284.1422318233624
 20
-22.53347080621009
 30
0.0
 10
283.800282036492
 20
-23.84382844003521
 30
0.0
 10
283.3929560092961
 20
-25.16473774269848
 30
0.0
 10
282.922006256584
 20
-26.48968255847752
 30
0.0
 10
282.3895726714293
 20
-27.81210486536295
 30
0.0
 10
281.7981312305155
 20
-29.12546887791066
 30
0.0
 10
281.1504878090812
 20
-30.42329105648126
 30
0.0
 10
280.4497589603672
 20
-31.69917634312307
 30
0.0
 10
279.6993603726097
 20
-32.94684266754851
 30
0.0
 10
278.9029919064869
 20
-34.16015265765746
 30
0.0
 10
278.0646150035127
 20
-35.33315588387064
 30
0.0
 10
277.1884278125976
 20
-36.46012749294499
 30
0.0
 10
276.2788434617084
 20
-37.53559913646245
 30
0.0
 10
275.3404761978336
 20
-38.55438100347694
 30
0.0
 10
274.3781200845779
 20
-39.51159364250655
 30
0.0
 10
273.3967255785844
 20
-40.40270064834518
 30
0.0
 10
272.4013729837275
 20
-41.22354233366976
 30
0.0
 10
271.3972413493108
 20
-41.97037027569652
 30
0.0
 10
270.389570858508
 20
-42.63988213178165
 30
0.0
 10
269.383616120186
 20
-43.22925530843298
 30
0.0
 10
268.3845873948376
 20
-43.73617638945055
 30
0.0
 10
267.3976296314784
 20
-44.15883884191887
 30
0.0
 10
266.4277270907072
 20
-44.49596924161407
 30
0.0
 10
265.4795715421206
 20
-44.74683400457156
 30
0.0
 10
264.5573991769652
 20
-44.91116714236593
 30
0.0
 10
263.6648287604611
 20
-44.98910536055224
 30
0.0
 10
262.8049547477254
 20
-44.98068895323071
 30
0.0
 10
261.9797477788052
 20
-44.88666111502
 30
0.0
 10
261.1926122479233
 20
-44.70414560893848
 30
0.0
 10
260.4645575389088
 20
-44.45048520685845
 30
0.0
 10
260.0239840710265
 20
-44.21439339941819
 30
0.0
 10
259.8137431804671
 20
-44.10173080062713
 30
0.0
  0
SPLINE
  5
102
330
1F
100
AcDbEntity
  8
0
  6
Continuous
 62
     7
370
    25
100
AcDbSpline
210
0.0
220
0.0
230
1.0
 70
     8
 71
     3
 72
    39
 73
    35
 74
     0
 42
0.00000001
 43
0.00000001
 40
0.0
 40
0.0
 40
0.0
 40
0.0
 40
0.0186113218137442
 40
0.0512769285522766
 40
0.0838868157869546
 40
0.1164744290565486
 40
0.1490590601417809
 40
0.1816536532107905
 40
0.2142678022467674
 40
0.2469063110837702
 40
0.2795707143393229
 40
0.3122603763500961
 40
0.344973259531196
 40
0.3777064472059262
 40
0.4104564896906641
 40
0.4432196261628243
 40
0.4759919211188421
 40
0.5087693436260732
 40
0.5415478098880058
 40
0.5743221535623694
 40
0.6070879242020975
 40
0.639840990926533
 40
0.6725772573425085
 40
0.705292725677918
 40
0.7379836106189522
 40
0.770646528179191
 40
0.803278794614702
 40
0.8358788828988183
 40
0.8684470992596416
 40
0.900986557653741
 40
0.9335045401158831
 40
0.9660142291978497
 40
0.9985292281609828
 40
1.0
 40
1.0
 40
1.0
 40
1.0
 10
266.0959904857569
 20
-44.57038088191753
 30
0.0
 10
266.0477314675192
 20
-44.38937123250417
 30
0.0
 10
265.914770775369
 20
-43.89066302934001
 30
0.0
 10
265.7684108636062
 20
-43.00457248635273
 30
0.0
 10
265.6529750510106
 20
-41.92527959667072
 30
0.0
 10
265.6081229744132
 20
-40.79271575711876
 30
0.0
 10
265.6307943642685
 20
-39.61589853355873
 30
0.0
 10
265.7223495710419
 20
-38.39934892318558
 30
0.0
 10
265.8825193966652
 20
-37.14915332710682
 30
0.0
 10
266.1110040356176
 20
-35.87127543969008
 30
0.0
 10
266.407027949697
 20
-34.57197872038562
 30
0.0
 10
266.7694548798837
 20
-33.2576509428166
 30
0.0
 10
267.196763175512
 20
-31.93478463729246
 30
0.0
 10
267.6870650844452
 20
-30.60992229777624
 30
0.0
 10
268.2381181922975
 20
-29.28961672876201
 30
0.0
 10
268.8473412910941
 20
-27.98039192635535
 30
0.0
 10
269.5118304112414
 20
-26.68870736783304
 30
0.0
 10
270.2283756094648
 20
-25.4209240447832
 30
0.0
 10
270.993469909642
 20
-24.18328515796108
 30
0.0
 10
271.8033301376456
 20
-22.98187345574345
 30
0.0
 10
272.6539174002231
 20
-21.8225747390223
 30
0.0
 10
273.5409661947695
 20
-20.71103505044656
 30
0.0
 10
274.4599987330249
 20
-19.65263944822062
 30
0.0
 10
275.4063424183806
 20
-18.65248507274077
 30
0.0
 10
276.3751523299164
 20
-17.71534704977755
 30
0.0
 10
277.3614332253237
 20
-16.84565305587848
 30
0.0
 10
278.3600757699579
 20
-16.0474211974804
 30
0.0
 10
279.3658579571363
 20
-15.32433019009028
 30
0.0
 10
280.3736025131601
 20
-14.67929374345398
 30
0.0
 10
281.3777899585505
 20
-14.11588482654372
 30
0.0
 10
282.3742501708691
 20
-13.63287739030013
 30
0.0
 10
283.354086786226
 20
-13.24451717794521
 30
0.0
 10
284.016773232734
 20
-13.01306739442566
 30
0.0
 10
284.3435055247942
 20
-12.93573332783251
 30
0.0
 10
284.3576452262845
 20
-12.93238661052531
 30
0.0
  0
SPLINE
  5
103
330
1F
100
AcDbEntity
  8
0
  6
Continuous
 62
     7
370
    25
100
AcDbSpline
210
0.0
220
0.0
230
1.0
 70
     8
 71
     3
 72
    14
 73
    10
 74
     0
 42
0.00000001
 43
0.00000001
 40
0.0
 40
0.0
 40
0.0
 40
0.0
 40
0.140165048735927
 40
0.2953202441308213
 40
0.4417070502528375
 40
0.5974208728165964
 40
0.7477010030150644
 40
0.8956207731465635
 40
1.0
 40
1.0
 40
1.0
 40
1.0
 10
273.7848051525111
 20
14.85284661319286
 30
0.0
 10
273.8748197001279
 20
14.79660873875075
 30
0.0
 10
274.0644755267213
 20
14.67811855193584
 30
0.0
 10
274.3076798114781
 20
14.4081460627607
 30
0.0
 10
274.533545470514
 20
14.05516591949932
 30
0.0
 10
274.7175705168267
 20
13.61991312260874
 30
0.0
 10
274.8509763734435
 20
13.10091761344718
 30
0.0
 10
274.9214878782471
 20
12.57984428097567
 30
0.0
 10
274.9290269481994
 20
12.21953080369366
 30
0.0
 10
274.9321459550214
 20
12.07046464555189
 30
0.0
  0
SPLINE
  5
104
330
1F
100
AcDbEntity
  8
0
  6
Continuous
 62
     7
370
    25
100
AcDbSpline
210
0.0
220
0.0
230
1.0
 70
     8
 71
     3
 72
    28
 73
    24
 74
     0
 42
0.00000001
 43
0.00000001
 40
0.0
 40
0.0
 40
0.0
 40
0.0
 40
0.0251233745704763
 40
0.0733552836615123
 40
0.1217694125592768
 40
0.1703743445739203
 40
0.219156071430852
 40
0.2680794643956411
 40
0.3170999919718419
 40
0.3661693168338072
 40
0.4152363247285601
 40
0.464235296786934
 40
0.513115805377637
 40
0.5618287031276983
 40
0.6103295216290833
 40
0.6585860576063701
 40
0.7065934714662226
 40
0.7544022889523094
 40
0.802154635952257
 40
0.8500719529834826
 40
0.8986890344558032
 40
0.9489511453059272
 40
1.0
 40
1.0
 40
1.0
 40
1.0
 10
274.9321459550214
 20
12.07046464555188
 30
0.0
 10
274.9304269262088
 20
11.95766417312571
 30
0.0
 10
274.9254077021465
 20
11.62830910863145
 30
0.0
 10
274.868469133091
 20
11.0468364165702
 30
0.0
 10
274.7387147235817
 20
10.32309679971913
 30
0.0
 10
274.5431563496564
 20
9.57445405518733
 30
0.0
 10
274.2845353329979
 20
8.813350670461816
 30
0.0
 10
273.9655387441463
 20
8.05129919849449
 30
0.0
 10
273.5904778571373
 20
7.300161869710616
 30
0.0
 10
273.1647201812022
 20
6.57150684396033
 30
0.0
 10
272.6947604698514
 20
5.87656884976908
 30
0.0
 10
272.1880584883415
 20
5.225933470676549
 30
0.0
 10
271.6529381820825
 20
4.629333135760596
 30
0.0
 10
271.0984215304713
 20
4.095391339091655
 30
0.0
 10
270.5341625840202
 20
3.631464995638073
 30
0.0
 10
269.970284512938
 20
3.24337197009706
 30
0.0
 10
269.4171373163777
 20
2.935099081406753
 30
0.0
 10
268.8849017165804
 20
2.708460119342913
 30
0.0
 10
268.3833719495836
 20
2.563126516017401
 30
0.0
 10
267.9202210306026
 20
2.495685327149881
 30
0.0
 10
267.5007521714645
 20
2.502973011862579
 30
0.0
 10
267.1250667976725
 20
2.573604723935329
 30
0.0
 10
266.9130465463463
 20
2.675722664074412
 30
0.0
 10
266.8062131848832
 20
2.727178139400474
 30
0.0
  0
SPLINE
  5
105
330
1F
100
AcDbEntity
  8
0
  6
Continuous
 62
     7
370
    25
100
AcDbSpline
210
0.0
220
0.0
230
1.0
 70
     8
 71
     3
 72
    14
 73
    10
 74
     0
 42
0.00000001
 43
0.00000001
 40
0.0
 40
0.0
 40
0.0
 40
0.0
 40
0.1401650487359226
 40
0.2953202441308189
 40
0.4417070502528355
 40
0.597420872816597
 40
0.7477010030150598
 40
0.8956207731465609
 40
1.0
 40
1.0
 40
1.0
 40
1.0
 10
243.732766952083
 20
-37.19881026818098
 30
0.0
 10
243.8227814996997
 20
-37.25504814262309
 30
0.0
 10
244.0124373262931
 20
-37.373538329438
 30
0.0
 10
244.2556416110498
 20
-37.64351081861317
 30
0.0
 10
244.4815072700858
 20
-37.99649096187453
 30
0.0
 10
244.6655323163985
 20
-38.43174375876509
 30
0.0
 10
244.7989381730153
 20
-38.95073926792665
 30
0.0
 10
244.8694496778189
 20
-39.47181260039817
 30
0.0
 10
244.8769887477712
 20
-39.83212607768018
 30
0.0
 10
244.8801077545932
 20
-39.98119223582196
 30
0.0
  0
SPLINE
  5
106
330
1F
100
AcDbEntity
  8
0
  6
Continuous
 62
     7
370
    25
100
AcDbSpline
210
0.0
220
0.0
230
1.0
 70
     8
 71
     3
 72
    28
 73
    24
 74
     0
 42
0.00000001
 43
0.00000001
 40
0.0
 40
0.0
 40
0.0
 40
0.0
 40
0.0251233745704765
 40
0.0733552836615142
 40
0.1217694125592784
 40
0.1703743445739209
 40
0.2191560714308508
 40
0.2680794643956405
 40
0.317099991971841
 40
0.3661693168338081
 40
0.4152363247285656
 40
0.464235296786936
 40
0.5131158053776395
 40
0.5618287031277001
 40
0.6103295216290854
 40
0.6585860576063698
 40
0.7065934714662245
 40
0.7544022889523113
 40
0.8021546359522577
 40
0.8500719529834839
 40
0.8986890344558038
 40
0.9489511453059286
 40
1.0
 40
1.0
 40
1.0
 40
1.0
 10
244.8801077545932
 20
-39.98119223582196
 30
0.0
 10
244.8783887257806
 20
-40.09399270824812
 30
0.0
 10
244.8733695017182
 20
-40.42334777274242
 30
0.0
 10
244.8164309326628
 20
-41.00482046480366
 30
0.0
 10
244.6866765231535
 20
-41.72856008165473
 30
0.0
 10
244.4911181492281
 20
-42.47720282618652
 30
0.0
 10
244.2324971325697
 20
-43.23830621091204
 30
0.0
 10
243.9135005437181
 20
-44.00035768287933
 30
0.0
 10
243.538439656709
 20
-44.75149501166324
 30
0.0
 10
243.112681980774
 20
-45.48015003741354
 30
0.0
 10
242.6427222694232
 20
-46.17508803160479
 30
0.0
 10
242.1360202879133
 20
-46.82572341069734
 30
0.0
 10
241.6008999816542
 20
-47.42232374561328
 30
0.0
 10
241.0463833300431
 20
-47.95626554228222
 30
0.0
 10
240.482124383592
 20
-48.42019188573579
 30
0.0
 10
239.9182463125098
 20
-48.8082849112768
 30
0.0
 10
239.3650991159495
 20
-49.11655779996711
 30
0.0
 10
238.8328635161521
 20
-49.34319676203093
 30
0.0
 10
238.3313337491554
 20
-49.48853036535644
 30
0.0
 10
237.8681828301744
 20
-49.55597155422397
 30
0.0
 10
237.4487139710363
 20
-49.54868386951128
 30
0.0
 10
237.0730285972443
 20
-49.47805215743851
 30
0.0
 10
236.8610083459181
 20
-49.37593421729944
 30
0.0
 10
236.754174984455
 20
-49.32447874197339
 30
0.0
  0
LWPOLYLINE
  5
107
330
1F
100
AcDbEntity
  8
0
  6
Continuous
 62
     7
370
    25
100
AcDbPolyline
 90
      142
 70
   128
 43
0.0
 10
309.5197180614
 20
-2.426419092
 10
309.4800580259
 20
-0.3941651356
 10
309.3611566608
 20
1.5882634664
 10
309.1632500337
 20
3.5169307855
 10
308.88673107
 20
5.3880076313
 10
308.5321487724
 20
7.1977791539
 10
308.1002071312
 20
8.9426522195
 10
307.5917637266
 20
10.619162544
 10
307.007828026
 20
12.2239815715
 10
306.3495593795
 20
13.7539230823
 10
305.6182647187
 20
15.2059495191
 10
304.8153959615
 20
16.5771780179
 10
303.9425471293
 20
17.8648861315
 10
303.0014511829
 20
19.0665172344
 10
301.993976581
 20
20.1796855995
 10
300.9221235712
 20
21.202181134
 10
299.7880202186
 20
22.1319737676
 10
298.5939181802
 20
22.9672174831
 10
297.3421882352
 20
23.7062539815
 10
296.0353155775
 20
24.3476159741
 10
294.6758948818
 20
24.8900300962
 10
293.2666251521
 20
25.3324194346
 10
291.810304363
 20
25.6739056664
 10
290.3098239045
 20
25.9138108021
 10
288.7681628417
 20
26.0516585325
 10
287.1883820001
 20
26.0871751734
 10
285.5736178881
 20
26.02029021
 10
283.9270764706
 20
25.8511364362
 10
282.252026803
 20
25.580049691
 10
280.5517945414
 20
25.2075681923
 10
278.8297553396
 20
24.7344314674
 10
277.089328147
 20
24.1615788855
 10
275.3339684208
 20
23.4901477925
 10
273.5671612651
 20
22.7214712526
 10
271.7924145121
 20
21.857075402
 10
270.0132517571
 20
20.8986764185
 10
268.2332053631
 20
19.8481771147
 10
266.4558094475
 20
18.7076631597
 10
264.6845928653
 20
17.4793989383
 10
262.9230722031
 20
16.1658230556
 10
261.174744797
 20
14.7695434947
 10
259.4430817894
 20
13.2933324396
 10
257.7315212369
 20
11.7401207706
 10
256.0434612845
 20
10.1129922458
 10
254.3822534189
 20
8.4151773781
 10
252.7511958147
 20
6.650047022
 10
251.1535267856
 20
4.8211056802
 10
249.5924183558
 20
2.9319845466
 10
248.0709699615
 20
0.9864342963
 10
246.5922022976
 20
-1.0116823608
 10
245.1590513204
 20
-3.058398349
 10
243.7743624186
 20
-5.1496501032
 10
242.4408847638
 20
-7.2812856366
 10
241.1612658524
 20
-9.4490727841
 10
239.9380462494
 20
-11.648707605
 10
238.773654544
 20
-13.8758229281
 10
237.6704025282
 20
-16.1259970219
 10
236.6304806068
 20
-18.3947623741
 10
235.6559534484
 20
-20.6776145611
 10
234.7487558866
 20
-22.9700211912
 10
233.9106890781
 20
-25.2674309032
 10
233.1434169269
 20
-27.5652824028
 10
232.448462781
 20
-29.8590135185
 10
231.8272064074
 20
-32.1440702596
 10
231.2808812532
 20
-34.4159158574
 10
230.8105719964
 20
-36.6700397727
 10
230.4172123925
 20
-38.9019666512
 10
230.1015834206
 20
-41.1072652086
 10
229.8643117328
 20
-43.2815570288
 10
229.70586841
 20
-45.4205252567
 10
229.6265680268
 20
-47.5199231687
 10
229.6265680268
 20
-49.5755826048
 10
229.70586841
 20
-51.5834222433
 10
229.8643117328
 20
-53.5394557045
 10
230.1015834206
 20
-55.4397994651
 10
230.4172123925
 20
-57.2806805684
 10
230.8105719964
 20
-59.0584441153
 10
231.2808812532
 20
-60.769560521
 10
231.8272064074
 20
-62.4106325221
 10
232.448462781
 20
-63.9784019222
 10
233.1434169269
 20
-65.4697560601
 10
233.9106890781
 20
-66.8817339904
 10
234.7487558866
 20
-68.2115323615
 10
235.6559534484
 20
-69.4565109818
 10
236.6304806068
 20
-70.6141980615
 10
237.6704025282
 20
-71.6822951202
 10
238.773654544
 20
-72.6586815499
 10
239.9380462494
 20
-73.5414188258
 10
241.1612658524
 20
-74.3287543547
 10
242.4408847638
 20
-75.0191249549
 10
243.7743624186
 20
-75.6111599593
 10
245.1590513204
 20
-76.1036839373
 10
246.5922022976
 20
-76.4957190282
 10
248.0709699615
 20
-76.7864868825
 10
249.5924183558
 20
-76.9754102075
 10
251.1535267856
 20
-77.0621139136
 10
252.7511958147
 20
-77.0464258585
 10
254.3822534189
 20
-76.9283771894
 10
256.0434612845
 20
-76.708202281
 10
257.7315212369
 20
-76.3863382703
 10
259.4430817894
 20
-75.9634241883
 10
261.174744797
 20
-75.4402996919
 10
262.9230722031
 20
-74.8180033964
 10
264.6845928653
 20
-74.0977708133
 10
266.4558094475
 20
-73.281031898
 10
268.2332053631
 20
-72.3694082098
 10
270.0132517571
 20
-71.3647096932
 10
271.7924145121
 20
-70.2689310842
 10
273.5671612651
 20
-69.0842479497
 10
275.3339684208
 20
-67.8130123684
 10
277.089328147
 20
-66.4577482609
 10
278.8297553396
 20
-65.0211463786
 10
280.5517945414
 20
-63.5060589617
 10
282.252026803
 20
-61.9154940759
 10
283.9270764706
 20
-60.2526096405
 10
285.5736178881
 20
-58.5207071588
 10
287.1883820001
 20
-56.7232251627
 10
288.7681628417
 20
-54.8637323863
 10
290.3098239045
 20
-52.9459206806
 10
291.810304363
 20
-50.973597683
 10
293.2666251521
 20
-48.9506792584
 10
294.6758948818
 20
-46.881181724
 10
296.0353155775
 20
-44.7692138756
 10
297.3421882352
 20
-42.6189688298
 10
298.5939181802
 20
-40.4347156993
 10
299.7880202186
 20
-38.2207911163
 10
300.9221235712
 20
-35.9815906233
 10
301.993976581
 20
-33.7215599454
 10
303.0014511829
 20
-31.4451861645
 10
303.9425471293
 20
-29.15698881
 10
304.8153959615
 20
-26.8615108859
 10
305.6182647187
 20
-24.5633098511
 10
306.3495593795
 20
-22.2669485711
 10
307.007828026
 20
-19.9769862586
 10
307.5917637266
 20
-17.6979694218
 10
308.1002071312
 20
-15.4344228378
 10
308.5321487724
 20
-13.1908405687
 10
308.88673107
 20
-10.9716770394
 10
309.1632500337
 20
-8.7813381937
 10
309.3611566608
 20
-6.6241727467
 10
309.4800580259
 20
-4.5044635507
 10
309.5197180614
 20
-2.426419092
  0
ARC
  5
108
330
1F
100
AcDbEntity
  8
0
  6
Continuous
 62
     7
370
    25
100
AcDbCircle
 10
251.1467159214
 20
-59.0336576216
 30
0.0
 40
19.2393988641005
100
AcDbArc
 50
232.5498923513
 51
247.7912813488
  0
ARC
  5
109
330
1F
100
AcDbEntity
  8
0
  6
Continuous
 62
     7
370
    25
100
AcDbCircle
 10
289.4063146359
 20
7.2409763685
 30
0.0
 40
19.23505278672596
100
AcDbArc
 50
52.3627547683
 51
67.1179618361
  0
ARC
  5
10A
330
1F
100
AcDbEntity
  8
0
  6
Continuous
 62
     7
370
    25
100
AcDbCircle
 10
299.2665754353
 20
1.468904019
 30
0.0
 40
19.30432885772858
100
AcDbArc
 50
52.1902728813
 51
59.9872831665
  0
ARC
  5
10B
330
1F
100
AcDbEntity
  8
0
  6
Continuous
 62
     7
370
    25
100
AcDbCircle
 10
261.052617224
 20
-64.7324103203
 30
0.0
 40
19.25667268341739
100
AcDbArc
 50
240.0097643535
 51
247.1513815009
  0
LWPOLYLINE
  5
10C
330
1F
100
AcDbEntity
  8
0
  6
Continuous
 62
     7
370
    25
100
AcDbPolyline
 90
       54
 70
   128
 43
0.0
 10
275.2250391738
 20
-56.9273003088
 10
275.185334257
 20
-57.7228204375
 10
275.0667768765
 20
-58.5530155286
 10
274.871031318
 20
-59.4062314628
 10
274.6008454201
 20
-60.2704909587
 10
274.2600120006
 20
-61.1336617074
 10
273.8533156136
 20
-61.9836266838
 10
273.3864653848
 20
-62.8084542426
 10
272.8660148681
 20
-63.5965656131
 10
272.299270048
 20
-64.3368974392
 10
271.6941867793
 20
-65.0190570847
 10
271.0592591048
 20
-65.6334685237
 10
270.4034000173
 20
-66.1715067663
 10
269.7358163408
 20
-66.625618935
 10
269.0658794865
 20
-66.9894302904
 10
268.4029938996
 20
-67.2578337185
 10
267.7564650405
 20
-67.4270614236
 10
267.1353687573
 20
-67.4947378195
 10
266.5484238802
 20
-67.4599128781
 10
266.0038698288
 20
-67.3230754653
 10
265.5093509483
 20
-67.0861464782
 10
265.0718091997
 20
-66.7524518806
 10
264.6973867101
 20
-66.3266760132
 10
264.3913395505
 20
-65.8147958357
 10
264.1579639522
 20
-65.2239970239
 10
264.000535997
 20
-64.562573098
 10
263.9212656283
 20
-63.839809
 10
263.9212656283
 20
-63.0658507537
 10
264.000535997
 20
-62.2515630362
 10
264.1579639522
 20
-61.4083766621
 10
264.3913395505
 20
-60.5481281199
 10
264.6973867101
 20
-59.6828934133
 10
265.0718091997
 20
-58.8248185411
 10
265.5093509483
 20
-57.9859489936
 10
266.0038698288
 20
-57.1780606603
 10
266.5484238802
 20
-56.4124945225
 10
267.1353687573
 20
-55.6999974507
 10
267.7564650405
 20
-55.050571342
 10
268.4029938996
 20
-54.4733327153
 10
269.0658794865
 20
-53.9763847357
 10
269.7358163408
 20
-53.5667034635
 10
270.4034000173
 20
-53.2500399256
 10
271.0592591048
 20
-53.0308393841
 10
271.6941867793
 20
-52.912178934
 10
272.299270048
 20
-52.895724308
 10
272.8660148681
 20
-52.9817064929
 10
273.3864653848
 20
-53.1689184873
 10
273.8533156136
 20
-53.4547322453
 10
274.2600120006
 20
-53.8351355681
 10
274.6008454201
 20
-54.3047884269
 10
274.871031318
 20
-54.8570979252
 10
275.0667768765
 20
-55.4843108482
 10
275.185334257
 20
-56.1776225014
 10
275.2250391738
 20
-56.9273003088
  0
LWPOLYLINE
  5
10D
330
1F
100
AcDbEntity
  8
0
  6
Continuous
 62
     7
370
    25
100
AcDbPolyline
 90
       54
 70
   128
 43
0.0
 10
275.2250391738
 20
12.4786687015
 10
275.185334257
 20
11.6831485728
 10
275.0667768765
 20
10.8529534817
 10
274.871031318
 20
9.9997375475
 10
274.6008454201
 20
9.1354780516
 10
274.2600120006
 20
8.2723073029
 10
273.8533156136
 20
7.4223423265
 10
273.3864653848
 20
6.5975147677
 10
272.8660148681
 20
5.8094033972
 10
272.299270048
 20
5.0690715711
 10
271.6941867793
 20
4.3869119256
 10
271.0592591048
 20
3.7725004866
 10
270.4034000173
 20
3.234462244
 10
269.7358163408
 20
2.7803500753
 10
269.0658794865
 20
2.4165387199
 10
268.4029938996
 20
2.1481352918
 10
267.7564650405
 20
1.9789075867
 10
267.1353687573
 20
1.9112311908
 10
266.5484238802
 20
1.9460561322
 10
266.0038698288
 20
2.082893545
 10
265.5093509483
 20
2.3198225321
 10
265.0718091997
 20
2.6535171297
 10
264.6973867101
 20
3.0792929971
 10
264.3913395505
 20
3.5911731746
 10
264.1579639522
 20
4.1819719864
 10
264.000535997
 20
4.8433959123
 10
263.9212656283
 20
5.5661600102
 10
263.9212656283
 20
6.3401182566
 10
264.000535997
 20
7.1544059741
 10
264.1579639522
 20
7.9975923482
 10
264.3913395505
 20
8.8578408904
 10
264.6973867101
 20
9.723075597
 10
265.0718091997
 20
10.5811504692
 10
265.5093509483
 20
11.4200200167
 10
266.0038698288
 20
12.22790835
 10
266.5484238802
 20
12.9934744878
 10
267.1353687573
 20
13.7059715596
 10
267.7564650405
 20
14.3553976683
 10
268.4029938996
 20
14.9326362949
 10
269.0658794865
 20
15.4295842746
 10
269.7358163408
 20
15.8392655468
 10
270.4034000173
 20
16.1559290847
 10
271.0592591048
 20
16.3751296262
 10
271.6941867793
 20
16.4937900763
 10
272.299270048
 20
16.5102447023
 10
272.8660148681
 20
16.4242625174
 10
273.3864653848
 20
16.2370505229
 10
273.8533156136
 20
15.951236765
 10
274.2600120006
 20
15.5708334422
 10
274.6008454201
 20
15.1011805833
 10
274.871031318
 20
14.5488710851
 10
275.0667768765
 20
13.9216581621
 10
275.185334257
 20
13.2283465089
 10
275.2250391738
 20
12.4786687015
  0
LWPOLYLINE
  5
10E
330
1F
100
AcDbEntity
  8
0
  6
Continuous
 62
     7
370
    25
100
AcDbPolyline
 90
       89
 70
   128
 43
0.0
 10
285.1245341104
 20
-16.5094590209
 10
285.0848983156
 20
-17.8138700787
 10
284.9661929061
 20
-19.1573966714
 10
284.7690227775
 20
-20.5331924954
 10
284.4943926635
 20
-21.9342468105
 10
284.1437020163
 20
-23.3534201651
 10
283.7187378749
 20
-24.7834807771
 10
283.2216657594
 20
-26.2171413854
 10
282.6550186351
 20
-27.6470963842
 10
282.021684006
 20
-29.0660590505
 10
281.3248892002
 20
-30.466798676
 10
280.5681849243
 20
-31.8421774124
 10
279.7554271699
 20
-33.1851866452
 10
278.890757564
 20
-34.4889827069
 10
277.9785822649
 20
-35.7469217519
 10
277.0235495088
 20
-36.952593611
 10
276.0305259237
 20
-38.0998544568
 10
275.0045717302
 20
-39.182858111
 10
273.9509149557
 20
-40.1960858353
 10
272.8749247935
 20
-41.1343744534
 10
271.7820842429
 20
-41.9929426616
 10
270.6779621688
 20
-42.7674153932
 10
269.5681849243
 20
-43.4538461125
 10
268.4584076798
 20
-44.048736926
 10
267.3542856058
 20
-44.5490564064
 10
266.2614450552
 20
-44.9522550405
 10
265.185454893
 20
-45.2562782203
 10
264.1317981185
 20
-45.4595767134
 10
263.1058439249
 20
-45.5611145573
 10
262.1128203398
 20
-45.5603743385
 10
261.1577875837
 20
-45.4573598289
 10
260.2456122847
 20
-45.2525959668
 10
259.3809426788
 20
-44.9471261819
 10
258.5681849243
 20
-44.5425070783
 10
257.8114806484
 20
-44.0408005022
 10
257.1146858426
 20
-43.4445630352
 10
256.4813512136
 20
-42.7568329668
 10
255.9147040893
 20
-41.9811148119
 10
255.4176319738
 20
-41.1213614523
 10
254.9926678324
 20
-40.181953994
 10
254.6419771852
 20
-39.1676794422
 10
254.3673470712
 20
-38.0837063074
 10
254.1701769425
 20
-36.9355582684
 10
254.051471533
 20
-35.7290860242
 10
254.0118357382
 20
-34.470437481
 10
254.051471533
 20
-33.1660264232
 10
254.1701769425
 20
-31.8224998305
 10
254.3673470712
 20
-30.4467040066
 10
254.6419771852
 20
-29.0456496915
 10
254.9926678324
 20
-27.6264763369
 10
255.4176319738
 20
-26.1964157249
 10
255.9147040893
 20
-24.7627551166
 10
256.4813512136
 20
-23.3328001178
 10
257.1146858426
 20
-21.9138374514
 10
257.8114806484
 20
-20.513097826
 10
258.5681849243
 20
-19.1377190895
 10
259.3809426788
 20
-17.7947098568
 10
260.2456122847
 20
-16.490913795
 10
261.1577875837
 20
-15.2329747501
 10
262.1128203398
 20
-14.027302891
 10
263.1058439249
 20
-12.8800420451
 10
264.1317981185
 20
-11.7970383909
 10
265.185454893
 20
-10.7838106666
 10
266.2614450552
 20
-9.8455220485
 10
267.3542856058
 20
-8.9869538403
 10
268.4584076798
 20
-8.2124811088
 10
269.5681849243
 20
-7.5260503895
 10
270.6779621688
 20
-6.931159576
 10
271.7820842429
 20
-6.4308400955
 10
272.8749247935
 20
-6.0276414615
 10
273.9509149557
 20
-5.7236182817
 10
275.0045717302
 20
-5.5203197886
 10
276.0305259238
 20
-5.4187819446
 10
277.0235495088
 20
-5.4195221635
 10
277.9785822649
 20
-5.5225366731
 10
278.890757564
 20
-5.7273005352
 10
279.7554271699
 20
-6.03277032
 10
280.5681849243
 20
-6.4373894236
 10
281.3248892002
 20
-6.9390959998
 10
282.021684006
 20
-7.5353334668
 10
282.6550186351
 20
-8.2230635351
 10
283.2216657594
 20
-8.9987816901
 10
283.7187378749
 20
-9.8585350497
 10
284.1437020163
 20
-10.7979425079
 10
284.4943926635
 20
-11.8122170598
 10
284.7690227775
 20
-12.8961901945
 10
284.9661929061
 20
-14.0443382336
 10
285.0848983156
 20
-15.2508104777
 10
285.1245341104
 20
-16.5094590209
  0
LWPOLYLINE
  5
10F
330
1F
100
AcDbEntity
  8
0
  6
Continuous
 62
     7
370
    25
100
AcDbPolyline
 90
       54
 70
   128
 43
0.0
 10
305.2770773743
 20
-4.8756434275
 10
305.2373724574
 20
-5.6711635561
 10
305.1188150769
 20
-6.5013586472
 10
304.9230695184
 20
-7.3545745814
 10
304.6528836206
 20
-8.2188340773
 10
304.3120502011
 20
-9.082004826
 10
303.905353814
 20
-9.9319698024
 10
303.4385035852
 20
-10.7567973613
 10
302.9180530686
 20
-11.5449087317
 10
302.3513082484
 20
-12.2852405578
 10
301.7462249797
 20
-12.9674002033
 10
301.1112973053
 20
-13.5818116423
 10
300.4554382178
 20
-14.119849885
 10
299.7878545412
 20
-14.5739620537
 10
299.117917687
 20
-14.937773409
 10
298.4550321
 20
-15.2061768371
 10
297.808503241
 20
-15.3754045422
 10
297.1874069577
 20
-15.4430809381
 10
296.6004620806
 20
-15.4082559968
 10
296.0559080292
 20
-15.2714185839
 10
295.5613891487
 20
-15.0344895968
 10
295.1238474001
 20
-14.7007949992
 10
294.7494249105
 20
-14.2750191318
 10
294.443377751
 20
-13.7631389543
 10
294.2100021526
 20
-13.1723401425
 10
294.0525741974
 20
-12.5109162166
 10
293.9733038287
 20
-11.7881521187
 10
293.9733038287
 20
-11.0141938723
 10
294.0525741974
 20
-10.1999061548
 10
294.2100021526
 20
-9.3567197807
 10
294.443377751
 20
-8.4964712385
 10
294.7494249105
 20
-7.6312365319
 10
295.1238474001
 20
-6.7731616597
 10
295.5613891487
 20
-5.9342921122
 10
296.0559080292
 20
-5.1264037789
 10
296.6004620806
 20
-4.3608376411
 10
297.1874069577
 20
-3.6483405694
 10
297.808503241
 20
-2.9989144606
 10
298.4550321
 20
-2.421675834
 10
299.117917687
 20
-1.9247278544
 10
299.7878545412
 20
-1.5150465821
 10
300.4554382178
 20
-1.1983830443
 10
301.1112973053
 20
-0.9791825027
 10
301.7462249797
 20
-0.8605220527
 10
302.3513082484
 20
-0.8440674266
 10
302.9180530686
 20
-0.9300496115
 10
303.4385035852
 20
-1.117261606
 10
303.905353814
 20
-1.4030753639
 10
304.3120502011
 20
-1.7834786867
 10
304.6528836206
 20
-2.2531315456
 10
304.9230695184
 20
-2.8054410438
 10
305.1188150769
 20
-3.4326539668
 10
305.2373724574
 20
-4.12596562
 10
305.2770773743
 20
-4.8756434275
  0
LWPOLYLINE
  5
110
330
1F
100
AcDbEntity
  8
0
  6
Continuous
 62
     7
370
    25
100
AcDbPolyline
 90
       54
 70
   128
 43
0.0
 10
245.1730009734
 20
-39.5729881799
 10
245.1332960566
 20
-40.3685083086
 10
245.014738676
 20
-41.1987033997
 10
244.8189931176
 20
-42.0519193339
 10
244.5488072197
 20
-42.9161788297
 10
244.2079738002
 20
-43.7793495785
 10
243.8012774132
 20
-44.6293145548
 10
243.3344271844
 20
-45.4541421137
 10
242.8139766677
 20
-46.2422534842
 10
242.2472318476
 20
-46.9825853102
 10
241.6421485789
 20
-47.6647449558
 10
241.0072209044
 20
-48.2791563948
 10
240.3513618169
 20
-48.8171946374
 10
239.6837781403
 20
-49.2713068061
 10
239.0138412861
 20
-49.6351181615
 10
238.3509556992
 20
-49.9035215896
 10
237.7044268401
 20
-50.0727492946
 10
237.0833305569
 20
-50.1404256906
 10
236.4963856798
 20
-50.1056007492
 10
235.9518316284
 20
-49.9687633363
 10
235.4573127479
 20
-49.7318343493
 10
235.0197709993
 20
-49.3981397517
 10
234.6453485097
 20
-48.9723638842
 10
234.3393013501
 20
-48.4604837068
 10
234.1059257518
 20
-47.869684895
 10
233.9484977966
 20
-47.2082609691
 10
233.8692274279
 20
-46.4854968711
 10
233.8692274279
 20
-45.7115386248
 10
233.9484977966
 20
-44.8972509073
 10
234.1059257518
 20
-44.0540645332
 10
234.3393013501
 20
-43.1938159909
 10
234.6453485097
 20
-42.3285812844
 10
235.0197709993
 20
-41.4705064122
 10
235.4573127479
 20
-40.6316368646
 10
235.9518316284
 20
-39.8237485313
 10
236.4963856798
 20
-39.0581823936
 10
237.0833305569
 20
-38.3456853218
 10
237.7044268401
 20
-37.6962592131
 10
238.3509556992
 20
-37.1190205864
 10
239.0138412861
 20
-36.6220726068
 10
239.6837781403
 20
-36.2123913346
 10
240.3513618169
 20
-35.8957277967
 10
241.0072209044
 20
-35.6765272552
 10
241.6421485789
 20
-35.5578668051
 10
242.2472318476
 20
-35.5414121791
 10
242.8139766677
 20
-35.627394364
 10
243.3344271844
 20
-35.8146063584
 10
243.8012774132
 20
-36.1004201164
 10
244.2079738002
 20
-36.4808234392
 10
244.5488072197
 20
-36.950476298
 10
244.8189931176
 20
-37.5027857963
 10
245.014738676
 20
-38.1299987193
 10
245.1332960566
 20
-38.8233103724
 10
245.1730009734
 20
-39.5729881799
  0
LINE
  5
111
330
1F
100
AcDbEntity
  8
0
  6
Continuous
 62
     7
370
    25
100
AcDbLine
 10
296.8276143417
 20
-14.6118219673
 30
0.0
 11
296.869349239
 21
-14.6353472033
 31
0.0
  0
LINE
  5
112
330
1F
100
AcDbEntity
  8
0
  6
Continuous
 62
     7
370
    25
100
AcDbLine
 10
266.7755761413
 20
-66.6634788487
 30
0.0
 11
266.8173110386
 21
-66.6870040846
 31
0.0
  0
LINE
  5
113
330
1F
100
AcDbEntity
  8
0
  6
Continuous
 62
     7
370
    25
100
AcDbLine
 10
280.8058753058
 20
-7.729383326
 30
0.0
 11
280.7744383982
 21
-7.7111261969
 31
0.0
  0
LINE
  5
114
330
1F
100
AcDbEntity
  8
0
  6
Continuous
 62
     7
370
    25
100
AcDbLine
 10
259.7761450129
 20
-44.0851784169
 30
0.0
 11
259.8152235391
 21
-44.1075706822
 31
0.0
  0
LINE
  5
115
330
1F
100
AcDbEntity
  8
0
  6
Continuous
 62
     7
370
    25
100
AcDbLine
 10
266.7755761413
 20
2.7424901616
 30
0.0
 11
266.8173110386
 21
2.7189649256
 31
0.0
  0
LINE
  5
116
330
1F
100
AcDbEntity
  8
0
  6
Continuous
 62
     7
370
    25
100
AcDbLine
 10
236.7235379409
 20
-49.3091667198
 30
0.0
 11
236.7652728382
 21
-49.3326919557
 31
0.0
  0
LWPOLYLINE
  5
117
330
1F
100
AcDbEntity
  8
0
  6
Continuous
 62
     1
370
    25
100
AcDbPolyline
 90
       53
 70
   128
 43
0.0
 10
310.9339316238
 20
-2.426419092
 10
310.8941360253
 20
-4.5261967407
 10
310.7748271316
 20
-6.6678109961
 10
310.5762384954
 20
-8.8470695477
 10
310.2987588634
 20
-11.0597063944
 10
309.9429314149
 20
-13.3013901959
 10
309.5094526988
 20
-15.5677327508
 10
308.9991712702
 20
-17.854297587
 10
308.4130860289
 20
-20.1566086466
 10
307.7523442642
 20
-22.4701590475
 10
307.0182394092
 20
-24.7904199062
 10
306.2122085087
 20
-27.1128492032
 10
305.3358294059
 20
-29.4329006739
 10
304.3908176541
 20
-31.7460327086
 10
303.3790231582
 20
-34.0477172429
 10
302.3024265534
 20
-36.3334486211
 10
301.1631353281
 20
-38.5987524167
 10
299.9633796985
 20
-40.8391941912
 10
298.7055082425
 20
-43.0503881746
 10
297.3919833025
 20
-45.2280058508
 10
296.0253761653
 20
-47.3677844309
 10
294.6083620286
 20
-49.465535198
 10
293.143714764
 20
-51.5171517063
 10
291.6343014874
 20
-53.5186178202
 10
290.0830769461
 20
-55.4660155758
 10
288.493077735
 20
-57.3555328506
 10
286.8674163523
 20
-59.1834708257
 10
285.2092751064
 20
-60.9462512267
 10
283.5218998867
 20
-62.6404233283
 10
281.8085938094
 20
-64.2626707089
 10
280.0727107516
 20
-65.8098177431
 10
278.317648786
 20
-67.2788358179
 10
276.5468435287
 20
-68.6668492616
 10
274.7637614143
 20
-69.9711409726
 10
272.9718929095
 20
-71.1891577385
 10
271.1747456813
 20
-72.3185152345
 10
269.3758377297
 20
-73.3570026901
 10
267.5786905015
 20
-74.3025872175
 10
265.7868219968
 20
-75.1534177904
 10
264.0037398823
 20
-75.9078288681
 10
262.232934625
 20
-76.5643436555
 10
260.4778726594
 20
-77.121676994
 10
258.7419896017
 20
-77.5787378775
 10
257.0286835244
 20
-77.9346315878
 10
255.3413083047
 20
-78.1886614463
 10
253.6831670588
 20
-78.3403301776
 10
252.0575056761
 20
-78.389340883
 10
250.467506465
 20
-78.3355976218
 10
248.9162819237
 20
-78.1792055989
 10
247.4068686471
 20
-77.9204709591
 10
245.9422213825
 20
-77.5599001876
 10
244.5252072458
 20
-77.0981991185
 10
243.8745757819
 20
-76.84574471
  0
LWPOLYLINE
  5
118
330
1F
100
AcDbEntity
  8
0
  6
Continuous
 62
     1
370
    25
100
AcDbPolyline
 90
       18
 70
   128
 43
0.0
 10
301.1523932086
 20
22.4730771387
 10
301.1631353281
 20
22.4647929553
 10
302.3024265534
 20
21.5148868093
 10
303.3790231582
 20
20.4721674127
 10
304.3908176541
 20
19.3386759377
 10
305.3358294059
 20
18.1166312471
 10
306.2122085087
 20
16.8084255508
 10
307.0182394092
 20
15.4166197228
 10
307.7523442642
 20
13.9439382884
 10
308.4130860289
 20
12.3932640907
 10
308.9991712702
 20
10.7676326472
 10
309.5094526988
 20
9.0702262078
 10
309.9429314149
 20
7.3043675254
 10
310.2987588634
 20
5.4735133512
 10
310.5762384954
 20
3.5812476683
 10
310.7748271316
 20
1.6312746756
 10
310.8941360253
 20
-0.3725884632
 10
310.9339316238
 20
-2.426419092
  0
LWPOLYLINE
  5
119
330
1F
100
AcDbEntity
  8
0
  6
Continuous
 62
     1
370
    25
100
AcDbPolyline
 90
       17
 70
   128
 43
0.0
 10
320.8334265604
 20
-8.1412758747
 10
320.7936309619
 20
-6.087445246
 10
320.6743220682
 20
-4.0835821072
 10
320.475733432
 20
-2.1336091145
 10
320.1982538
 20
-0.2413434315
 10
319.8424263515
 20
1.5895107427
 10
319.4089476354
 20
3.3553694251
 10
318.8986662068
 20
5.0527758644
 10
318.3125809655
 20
6.6784073079
 10
317.6518392008
 20
8.2290815056
 10
316.9177343458
 20
9.70176294
 10
316.1117034453
 20
11.093568768
 10
315.2353243425
 20
12.4017744644
 10
314.2903125907
 20
13.6238191549
 10
313.2785180948
 20
14.7573106299
 10
312.20192149
 20
15.8000300265
 10
311.1009241633
 20
16.720307326
  0
LWPOLYLINE
  5
11A
330
1F
100
AcDbEntity
  8
0
  6
Continuous
 62
     1
370
    25
100
AcDbPolyline
 90
       53
 70
   128
 43
0.0
 10
253.5752955791
 20
-82.4780887761
 10
254.4247021824
 20
-82.8130559013
 10
255.8417163191
 20
-83.2747569703
 10
257.3063635837
 20
-83.6353277419
 10
258.8157768603
 20
-83.8940623817
 10
260.3670014016
 20
-84.0504544046
 10
261.9570006127
 20
-84.1041976658
 10
263.5826619954
 20
-84.0551869604
 10
265.2408032413
 20
-83.9035182291
 10
266.928178461
 20
-83.6494883706
 10
268.6414845383
 20
-83.2935946603
 10
270.377367596
 20
-82.8365337768
 10
272.1324295617
 20
-82.2792004382
 10
273.9032348189
 20
-81.6226856509
 10
275.6863169334
 20
-80.8682745731
 10
277.4781854381
 20
-80.0174440002
 10
279.2753326663
 20
-79.0718594729
 10
281.0742406179
 20
-78.0333720172
 10
282.8713878461
 20
-76.9040145213
 10
284.6632563509
 20
-75.6859977553
 10
286.4463384653
 20
-74.3817060444
 10
288.2171437226
 20
-72.9936926007
 10
289.9722056882
 20
-71.5246745258
 10
291.708088746
 20
-69.9775274916
 10
293.4213948233
 20
-68.355280111
 10
295.108770043
 20
-66.6611080095
 10
296.7669112889
 20
-64.8983276085
 10
298.3925726716
 20
-63.0703896334
 10
299.9825718827
 20
-61.1808723586
 10
301.533796424
 20
-59.233474603
 10
303.0432097006
 20
-57.2320084891
 10
304.5078569652
 20
-55.1803919807
 10
305.9248711019
 20
-53.0826412137
 10
307.2914782391
 20
-50.9428626335
 10
308.6050031791
 20
-48.7652449574
 10
309.8628746351
 20
-46.554050974
 10
311.0626302647
 20
-44.3136091995
 10
312.20192149
 20
-42.0483054039
 10
313.2785180948
 20
-39.7625740257
 10
314.2903125907
 20
-37.4608894914
 10
315.2353243425
 20
-35.1477574566
 10
316.1117034453
 20
-32.8277059859
 10
316.9177343458
 20
-30.505276689
 10
317.6518392008
 20
-28.1850158303
 10
318.3125809655
 20
-25.8714654293
 10
318.8986662068
 20
-23.5691543698
 10
319.4089476354
 20
-21.2825895335
 10
319.8424263515
 20
-19.0162469787
 10
320.1982538
 20
-16.7745631772
 10
320.475733432
 20
-14.5619263304
 10
320.6743220682
 20
-12.3826677789
 10
320.7936309619
 20
-10.2410535235
 10
320.8334265604
 20
-8.1412758747
  0
LWPOLYLINE
  5
11B
330
1F
100
AcDbEntity
  8
0
  6
Continuous
 62
     1
370
    25
100
AcDbPolyline
 90
       26
 70
   128
 43
0.0
 10
303.845458496
 20
-2.4978799333
 10
303.4134469742
 20
-2.2991212749
 10
302.8932422085
 20
-2.1803975262
 10
302.3309052338
 20
-2.1662539345
 10
301.7356696075
 20
-2.2569227372
 10
301.1173090823
 20
-2.450915155
 10
300.4859771209
 20
-2.7450458378
 10
299.8520401766
 20
-3.134485168
 10
299.2259074765
 20
-3.6128385624
 10
298.6178601022
 20
-4.1722514717
 10
298.0378821748
 20
-4.8035383512
 10
297.4954969159
 20
-5.4963334879
 10
296.9996102764
 20
-6.2392612048
 10
296.5583647013
 20
-7.0201226493
 10
296.1790054305
 20
-7.826096098
 10
295.867761533
 20
-8.6439474893
 10
295.6297436249
 20
-9.4602477259
 10
295.4688599536
 20
-10.2615931805
 10
295.3877522247
 20
-11.0348257829
 10
295.3877522247
 20
-11.767249075
 10
295.4688599536
 20
-12.4468366868
 10
295.6297436249
 20
-13.0624298084
 10
295.867761533
 20
-13.6039204178
 10
296.1790054305
 20
-14.0624172541
 10
296.5583647013
 20
-14.4303918119
 10
296.8276143417
 20
-14.6118219673
  0
LWPOLYLINE
  5
11C
330
1F
100
AcDbEntity
  8
0
  6
Continuous
 62
     1
370
    25
100
AcDbPolyline
 90
       26
 70
   128
 43
0.0
 10
273.7934202956
 20
-54.5495368146
 10
273.3614087738
 20
-54.3507781563
 10
272.8412040081
 20
-54.2320544076
 10
272.2788670334
 20
-54.2179108159
 10
271.6836314071
 20
-54.3085796185
 10
271.0652708819
 20
-54.5025720363
 10
270.4339389205
 20
-54.7967027192
 10
269.8000019761
 20
-55.1861420493
 10
269.173869276
 20
-55.6644954438
 10
268.5658219018
 20
-56.223908353
 10
267.9858439744
 20
-56.8551952326
 10
267.4434587155
 20
-57.5479903693
 10
266.947572076
 20
-58.2909180861
 10
266.5063265008
 20
-59.0717795306
 10
266.1269672301
 20
-59.8777529794
 10
265.8157233326
 20
-60.6956043707
 10
265.5777054245
 20
-61.5119046073
 10
265.4168217532
 20
-62.3132500619
 10
265.3357140243
 20
-63.0864826642
 10
265.3357140243
 20
-63.8189059564
 10
265.4168217532
 20
-64.4984935682
 10
265.5777054245
 20
-65.1140866898
 10
265.8157233326
 20
-65.6555772991
 10
266.1269672301
 20
-66.1140741354
 10
266.5063265008
 20
-66.4820486933
 10
266.7755761413
 20
-66.6634788487
  0
LWPOLYLINE
  5
11D
330
1F
100
AcDbEntity
  8
0
  6
Continuous
 62
     1
370
    25
100
AcDbPolyline
 90
       45
 70
   128
 43
0.0
 10
280.7744383982
 20
-7.7111261969
 10
280.5817676774
 20
-7.6039084677
 10
279.7739514625
 20
-7.2344257969
 10
278.9154557881
 20
-6.9645221824
 10
278.0108610999
 20
-6.7956376767
 10
277.0649938021
 20
-6.7286733517
 10
276.0829005058
 20
-6.763986491
 10
275.0698211038
 20
-6.9013886838
 10
274.031160813
 20
-7.1401468299
 10
272.9724613354
 20
-7.4789870512
 10
271.8993712909
 20
-7.9161014887
 10
270.817616079
 20
-8.4491579477
 10
269.732967332
 20
-9.0753123413
 10
268.6512121202
 20
-9.7912238648
 10
267.5781220757
 20
-10.5930728207
 10
266.5194225981
 20
-11.4765809977
 10
265.4807623073
 20
-12.4370344974
 10
264.4676829053
 20
-13.469308885
 10
263.485589609
 20
-14.5678965298
 10
262.5397223111
 20
-15.7269359915
 10
261.6351276229
 20
-16.940243293
 10
260.7766319485
 20
-18.201344915
 10
259.9688157337
 20
-19.5035123345
 10
259.2159890275
 20
-20.8397979252
 10
258.5221684862
 20
-22.2030720251
 10
257.8910559425
 20
-23.586060977
 10
257.3260186549
 20
-24.9813859366
 10
256.8300713419
 20
-26.3816022414
 10
256.4058600969
 20
-27.7792391316
 10
256.0556482704
 20
-29.1668396097
 10
255.7813043941
 20
-30.5370002268
 10
255.5842922113
 20
-31.8824105832
 10
255.4656628672
 20
-33.1958923324
 10
255.4260493006
 20
-34.470437481
 10
255.4656628672
 20
-35.6992457793
 10
255.5842922113
 20
-36.8757610032
 10
255.7813043941
 20
-37.9937059349
 10
256.0556482704
 20
-39.0471158547
 10
256.4058600969
 20
-40.0303703647
 10
256.8300713419
 20
-40.9382233768
 10
257.3260186549
 20
-41.7658311023
 10
257.8910559425
 20
-42.5087778959
 10
258.5221684862
 20
-43.163099815
 10
259.2159890275
 20
-43.7253057691
 10
259.7761450129
 20
-44.0851784169
  0
LWPOLYLINE
  5
11E
330
1F
100
AcDbEntity
  8
0
  6
Continuous
 62
     1
370
    25
100
AcDbPolyline
 90
       31
 70
   128
 43
0.0
 10
265.9187875961
 20
-44.6412054954
 10
265.6807993307
 20
-43.7085627177
 10
265.4837871479
 20
-42.5906177859
 10
265.3651578038
 20
-41.414102562
 10
265.3255442372
 20
-40.1852942638
 10
265.3651578038
 20
-38.9107491151
 10
265.4837871479
 20
-37.5972673659
 10
265.6807993307
 20
-36.2518570096
 10
265.955143207
 20
-34.8816963925
 10
266.3053550335
 20
-33.4940959144
 10
266.7295662785
 20
-32.0964590241
 10
267.2255135915
 20
-30.6962427193
 10
267.7905508791
 20
-29.3009177598
 10
268.4216634228
 20
-27.9179288078
 10
269.1154839641
 20
-26.5546547079
 10
269.8683106703
 20
-25.2183691173
 10
270.6761268851
 20
-23.9162016977
 10
271.5346225596
 20
-22.6551000757
 10
272.4392172477
 20
-21.4417927742
 10
273.3850845456
 20
-20.2827533125
 10
274.3671778419
 20
-19.1841656677
 10
275.3802572439
 20
-18.1518912802
 10
276.4189175347
 20
-17.1914377805
 10
277.4776170123
 20
-16.3079296035
 10
278.5507070568
 20
-15.5060806476
 10
279.6324622686
 20
-14.790169124
 10
280.7171110156
 20
-14.1640147305
 10
281.7988662275
 20
-13.6309582715
 10
282.871956272
 20
-13.193843834
 10
283.9306557496
 20
-12.8550036126
 10
284.3325375954
 20
-12.751315352
  0
LWPOLYLINE
  5
11F
330
1F
100
AcDbEntity
  8
0
  6
Continuous
 62
     1
370
    25
100
AcDbPolyline
 90
       26
 70
   128
 43
0.0
 10
273.7934202956
 20
14.8564321957
 10
273.3614087738
 20
15.055190854
 10
272.8412040081
 20
15.1739146027
 10
272.2788670334
 20
15.1880581944
 10
271.6836314071
 20
15.0973893918
 10
271.0652708819
 20
14.9033969739
 10
270.4339389205
 20
14.6092662911
 10
269.8000019761
 20
14.219826961
 10
269.173869276
 20
13.7414735665
 10
268.5658219018
 20
13.1820606573
 10
267.9858439744
 20
12.5507737777
 10
267.4434587155
 20
11.857978641
 10
266.947572076
 20
11.1150509241
 10
266.5063265008
 20
10.3341894797
 10
266.1269672301
 20
9.5282160309
 10
265.8157233326
 20
8.7103646396
 10
265.5777054245
 20
7.894064403
 10
265.4168217532
 20
7.0927189484
 10
265.3357140243
 20
6.3194863461
 10
265.3357140243
 20
5.5870630539
 10
265.4168217532
 20
4.9074754421
 10
265.5777054245
 20
4.2918823205
 10
265.8157233326
 20
3.7503917111
 10
266.1269672301
 20
3.2918948748
 10
266.5063265008
 20
2.923920317
 10
266.7755761413
 20
2.7424901616
  0
LWPOLYLINE
  5
120
330
1F
100
AcDbEntity
  8
0
  6
Continuous
 62
     1
370
    25
100
AcDbPolyline
 90
       26
 70
   128
 43
0.0
 10
243.7413820952
 20
-37.1952246857
 10
243.3093705734
 20
-36.9964660274
 10
242.7891658077
 20
-36.8777422787
 10
242.2268288329
 20
-36.8635986869
 10
241.6315932067
 20
-36.9542674896
 10
241.0132326815
 20
-37.1482599074
 10
240.38190072
 20
-37.4423905903
 10
239.7479637757
 20
-37.8318299204
 10
239.1218310756
 20
-38.3101833149
 10
238.5137837013
 20
-38.8695962241
 10
237.933805774
 20
-39.5008831036
 10
237.3914205151
 20
-40.1936782403
 10
236.8955338756
 20
-40.9366059572
 10
236.4542883004
 20
-41.7174674017
 10
236.0749290297
 20
-42.5234408505
 10
235.7636851322
 20
-43.3412922418
 10
235.5256672241
 20
-44.1575924784
 10
235.3647835528
 20
-44.958937933
 10
235.2836758238
 20
-45.7321705353
 10
235.2836758238
 20
-46.4645938275
 10
235.3647835528
 20
-47.1441814393
 10
235.5256672241
 20
-47.7597745609
 10
235.7636851322
 20
-48.3012651702
 10
236.0749290297
 20
-48.7597620065
 10
236.4542883004
 20
-49.1277365644
 10
236.7235379409
 20
-49.3091667198
  0
ENDSEC
  0
SECTION
  2
OBJECTS
  0
DICTIONARY
  5
C
330
0
100
AcDbDictionary
281
     1
  3
ACAD_GROUP
350
D
  3
ACAD_LAYOUT
350
1A
  3
ACAD_MLINESTYLE
350
17
  3
ACAD_PLOTSETTINGS
350
19
  3
ACAD_PLOTSTYLENAME
350
E
  3
ACAD_SCALELIST
350
47
  3
DWGPROPS
350
121
  0
DICTIONARY
  5
D
102
{ACAD_REACTORS
330
C
102
}
330
C
100
AcDbDictionary
281
     1
  0
DICTIONARY
  5
1A
102
{ACAD_REACTORS
330
C
102
}
330
C
100
AcDbDictionary
281
     1
  3
Layout1
350
1E
  3
Layout2
350
26
  3
Model
350
22
  0
DICTIONARY
  5
17
102
{ACAD_REACTORS
330
C
102
}
330
C
100
AcDbDictionary
281
     1
  3
Standard
350
18
  0
DICTIONARY
  5
19
102
{ACAD_REACTORS
330
C
102
}
330
C
100
AcDbDictionary
281
     1
  0
ACDBDICTIONARYWDFLT
  5
E
102
{ACAD_REACTORS
330
C
102
}
330
C
100
AcDbDictionary
281
     1
  3
Normal
350
F
100
AcDbDictionaryWithDefault
340
F
  0
DICTIONARY
  5
47
102
{ACAD_REACTORS
330
C
102
}
330
C
100
AcDbDictionary
281
     1
  3
A0
350
48
  3
A1
350
49
  3
A2
350
4A
  3
A3
350
4B
  3
A4
350
4C
  3
A5
350
4D
  3
A6
350
4E
  3
A7
350
4F
  3
A8
350
50
  3
A9
350
51
  3
B0
350
52
  3
B1
350
53
  3
B2
350
54
  3
B3
350
55
  3
B4
350
56
  3
B5
350
57
  3
B6
350
58
  3
B7
350
59
  3
B8
350
5A
  3
B9
350
5B
  3
C0
350
5C
  3
C1
350
5D
  3
C2
350
5E
  3
C3
350
5F
  3
C4
350
60
  3
C5
350
61
  3
C6
350
62
  3
C7
350
63
  3
C8
350
64
  3
C9
350
65
  3
D0
350
66
  3
D1
350
67
  3
D2
350
68
  0
XRECORD
  5
121
102
{ACAD_REACTORS
330
C
102
}
330
C
100
AcDbXrecord
280
     1
  1
DWGPROPS COOKIE
  2

  3

  4

  6

  7

  8
b.kav
  9

300
=
301
=
302
=
303
=
304
=
305
=
306
=
307
=
308
=
309
=
 40
0.0
 41
2459741.467398276
 42
2459741.467399803
  1

 90
        0
  0
LAYOUT
  5
1E
102
{ACAD_REACTORS
330
1A
102
}
330
1A
100
AcDbPlotSettings
  1

  2
none_device
  4

  6

 40
0.0
 41
0.0
 42
0.0
 43
0.0
 44
0.0
 45
0.0
 46
0.0
 47
0.0
 48
0.0
 49
0.0
140
0.0
141
0.0
142
1.0
143
1.0
 70
   688
 72
     1
 73
     0
 74
     5
  7

 75
    16
147
1.0
148
0.0
149
0.0
100
AcDbLayout
  1
Layout1
 70
     1
 71
     1
 10
0.0
 20
0.0
 11
420.0
 21
297.0
 12
0.0
 22
0.0
 32
0.0
 14
1.0000000000E+20
 24
1.0000000000E+20
 34
1.0000000000E+20
 15
-1.0000000000E+20
 25
-1.0000000000E+20
 35
-1.0000000000E+20
146
0.0
 13
0.0
 23
0.0
 33
0.0
 16
1.0
 26
0.0
 36
0.0
 17
0.0
 27
1.0
 37
0.0
 76
     0
330
1B
  0
LAYOUT
  5
26
102
{ACAD_REACTORS
330
1A
102
}
330
1A
100
AcDbPlotSettings
  1

  2
none_device
  4

  6

 40
0.0
 41
0.0
 42
0.0
 43
0.0
 44
0.0
 45
0.0
 46
0.0
 47
0.0
 48
0.0
 49
0.0
140
0.0
141
0.0
142
1.0
143
1.0
 70
   688
 72
     1
 73
     0
 74
     5
  7

 75
    16
147
1.0
148
0.0
149
0.0
100
AcDbLayout
  1
Layout2
 70
     1
 71
     2
 10
0.0
 20
0.0
 11
0.0
 21
0.0
 12
0.0
 22
0.0
 32
0.0
 14
0.0
 24
0.0
 34
0.0
 15
0.0
 25
0.0
 35
0.0
146
0.0
 13
0.0
 23
0.0
 33
0.0
 16
1.0
 26
0.0
 36
0.0
 17
0.0
 27
1.0
 37
0.0
 76
     0
330
23
  0
LAYOUT
  5
22
102
{ACAD_REACTORS
330
1A
102
}
330
1A
100
AcDbPlotSettings
  1

  2
none_device
  4
Letter_(8.50_x_11.00_Inches)
  6

 40
6.35
 41
6.35
 42
6.35000508
 43
6.35000508
 44
215.9
 45
279.4
 46
0.0
 47
0.0
 48
0.0
 49
0.0
140
0.0
141
0.0
142
1.0
143
1.0
 70
  1712
 72
     1
 73
     0
 74
     0
  7

 75
     0
147
1.0
148
0.0
149
0.0
100
AcDbLayout
  1
Model
 70
     1
 71
     0
 10
0.0
 20
0.0
 11
279.4
 21
215.9
 12
0.0
 22
0.0
 32
0.0
 14
0.0
 24
0.0
 34
0.0
 15
279.4
 25
215.9
 35
0.0
146
0.0
 13
0.0
 23
0.0
 33
0.0
 16
1.0
 26
0.0
 36
0.0
 17
0.0
 27
1.0
 37
0.0
 76
     0
330
1F
331
29
  0
MLINESTYLE
  5
18
102
{ACAD_REACTORS
330
17
102
}
330
17
100
AcDbMlineStyle
  2
Standard
 70
     0
  3

 62
   256
 51
90.0
 52
90.0
 71
     2
 49
0.5
 62
   256
  6
BYLAYER
 49
-0.5
 62
   256
  6
BYLAYER
  0
ACDBPLACEHOLDER
  5
F
102
{ACAD_REACTORS
330
E
102
}
330
E
  0
SCALE
  5
48
102
{ACAD_REACTORS
330
47
102
}
330
47
100
AcDbScale
 70
     0
300
1:1
140
1.0
141
1.0
290
     1
  0
SCALE
  5
49
102
{ACAD_REACTORS
330
47
102
}
330
47
100
AcDbScale
 70
     0
300
1:2
140
1.0
141
2.0
290
     0
  0
SCALE
  5
4A
102
{ACAD_REACTORS
330
47
102
}
330
47
100
AcDbScale
 70
     0
300
1:4
140
1.0
141
4.0
290
     0
  0
SCALE
  5
4B
102
{ACAD_REACTORS
330
47
102
}
330
47
100
AcDbScale
 70
     0
300
1:5
140
1.0
141
5.0
290
     0
  0
SCALE
  5
4C
102
{ACAD_REACTORS
330
47
102
}
330
47
100
AcDbScale
 70
     0
300
1:8
140
1.0
141
8.0
290
     0
  0
SCALE
  5
4D
102
{ACAD_REACTORS
330
47
102
}
330
47
100
AcDbScale
 70
     0
300
1:10
140
1.0
141
10.0
290
     0
  0
SCALE
  5
4E
102
{ACAD_REACTORS
330
47
102
}
330
47
100
AcDbScale
 70
     0
300
1:16
140
1.0
141
16.0
290
     0
  0
SCALE
  5
4F
102
{ACAD_REACTORS
330
47
102
}
330
47
100
AcDbScale
 70
     0
300
1:20
140
1.0
141
20.0
290
     0
  0
SCALE
  5
50
102
{ACAD_REACTORS
330
47
102
}
330
47
100
AcDbScale
 70
     0
300
1:30
140
1.0
141
30.0
290
     0
  0
SCALE
  5
51
102
{ACAD_REACTORS
330
47
102
}
330
47
100
AcDbScale
 70
     0
300
1:40
140
1.0
141
40.0
290
     0
  0
SCALE
  5
52
102
{ACAD_REACTORS
330
47
102
}
330
47
100
AcDbScale
 70
     0
300
1:50
140
1.0
141
50.0
290
     0
  0
SCALE
  5
53
102
{ACAD_REACTORS
330
47
102
}
330
47
100
AcDbScale
 70
     0
300
1:100
140
1.0
141
100.0
290
     0
  0
SCALE
  5
54
102
{ACAD_REACTORS
330
47
102
}
330
47
100
AcDbScale
 70
     0
300
2:1
140
2.0
141
1.0
290
     0
  0
SCALE
  5
55
102
{ACAD_REACTORS
330
47
102
}
330
47
100
AcDbScale
 70
     0
300
4:1
140
4.0
141
1.0
290
     0
  0
SCALE
  5
56
102
{ACAD_REACTORS
330
47
102
}
330
47
100
AcDbScale
 70
     0
300
8:1
140
8.0
141
1.0
290
     0
  0
SCALE
  5
57
102
{ACAD_REACTORS
330
47
102
}
330
47
100
AcDbScale
 70
     0
300
10:1
140
10.0
141
1.0
290
     0
  0
SCALE
  5
58
102
{ACAD_REACTORS
330
47
102
}
330
47
100
AcDbScale
 70
     0
300
100:1
140
100.0
141
1.0
290
     0
  0
SCALE
  5
59
102
{ACAD_REACTORS
330
47
102
}
330
47
100
AcDbScale
 70
     0
300
1/128" = 1'-0"
140
0.0078125
141
12.0
290
     0
  0
SCALE
  5
5A
102
{ACAD_REACTORS
330
47
102
}
330
47
100
AcDbScale
 70
     0
300
1/64" = 1'-0"
140
0.015625
141
12.0
290
     0
  0
SCALE
  5
5B
102
{ACAD_REACTORS
330
47
102
}
330
47
100
AcDbScale
 70
     0
300
1/32" = 1'-0"
140
0.03125
141
12.0
290
     0
  0
SCALE
  5
5C
102
{ACAD_REACTORS
330
47
102
}
330
47
100
AcDbScale
 70
     0
300
1/16" = 1'-0"
140
0.0625
141
12.0
290
     0
  0
SCALE
  5
5D
102
{ACAD_REACTORS
330
47
102
}
330
47
100
AcDbScale
 70
     0
300
3/32" = 1'-0"
140
0.09375
141
12.0
290
     0
  0
SCALE
  5
5E
102
{ACAD_REACTORS
330
47
102
}
330
47
100
AcDbScale
 70
     0
300
1/8" = 1'-0"
140
0.125
141
12.0
290
     0
  0
SCALE
  5
5F
102
{ACAD_REACTORS
330
47
102
}
330
47
100
AcDbScale
 70
     0
300
3/16" = 1'-0"
140
0.1875
141
12.0
290
     0
  0
SCALE
  5
60
102
{ACAD_REACTORS
330
47
102
}
330
47
100
AcDbScale
 70
     0
300
1/4" = 1'-0"
140
0.25
141
12.0
290
     0
  0
SCALE
  5
61
102
{ACAD_REACTORS
330
47
102
}
330
47
100
AcDbScale
 70
     0
300
3/8" = 1'-0"
140
0.375
141
12.0
290
     0
  0
SCALE
  5
62
102
{ACAD_REACTORS
330
47
102
}
330
47
100
AcDbScale
 70
     0
300
1/2" = 1'-0"
140
0.5
141
12.0
290
     0
  0
SCALE
  5
63
102
{ACAD_REACTORS
330
47
102
}
330
47
100
AcDbScale
 70
     0
300
3/4" = 1'-0"
140
0.75
141
12.0
290
     0
  0
SCALE
  5
64
102
{ACAD_REACTORS
330
47
102
}
330
47
100
AcDbScale
 70
     0
300
1" = 1'-0"
140
1.0
141
12.0
290
     0
  0
SCALE
  5
65
102
{ACAD_REACTORS
330
47
102
}
330
47
100
AcDbScale
 70
     0
300
1-1/2" = 1'-0"
140
1.5
141
12.0
290
     0
  0
SCALE
  5
66
102
{ACAD_REACTORS
330
47
102
}
330
47
100
AcDbScale
 70
     0
300
3" = 1'-0"
140
3.0
141
12.0
290
     0
  0
SCALE
  5
67
102
{ACAD_REACTORS
330
47
102
}
330
47
100
AcDbScale
 70
     0
300
6" = 1'-0"
140
6.0
141
12.0
290
     0
  0
SCALE
  5
68
102
{ACAD_REACTORS
330
47
102
}
330
47
100
AcDbScale
 70
     0
300
1'-0" = 1'-0"
140
12.0
141
12.0
290
     0
  0
ENDSEC
  0
EOF
